  0
SECTION
  2
HEADER
  9
$ACADVER
  1
AC1021
  9
$ACADMAINTVER
 70
    25
  9
$DWGCODEPAGE
  3
ANSI_1252
  9
$INSBASE
 10
0.0
 20
0.0
 30
0.0
  9
$EXTMIN
 10
1.000000000000000E+20
 20
1.000000000000000E+20
 30
1.000000000000000E+20
  9
$EXTMAX
 10
-1.000000000000000E+20
 20
-1.000000000000000E+20
 30
-1.000000000000000E+20
  9
$LIMMIN
 10
0.0
 20
0.0
  9
$LIMMAX
 10
12.0
 20
9.0
  9
$ORTHOMODE
 70
     0
  9
$REGENMODE
 70
     1
  9
$FILLMODE
 70
     1
  9
$QTEXTMODE
 70
     0
  9
$MIRRTEXT
 70
     1
  9
$LTSCALE
 40
1.0
  9
$ATTMODE
 70
     1
  9
$TEXTSIZE
 40
0.2
  9
$TRACEWID
 40
0.05
  9
$TEXTSTYLE
  7
Standard
  9
$CLAYER
  8
0
  9
$CELTYPE
  6
ByLayer
  9
$CECOLOR
 62
   256
  9
$CELTSCALE
 40
1.0
  9
$DISPSILH
 70
     0
  9
$DIMSCALE
 40
1.0
  9
$DIMASZ
 40
0.18
  9
$DIMEXO
 40
0.0625
  9
$DIMDLI
 40
0.38
  9
$DIMRND
 40
0.0
  9
$DIMDLE
 40
0.0
  9
$DIMEXE
 40
0.18
  9
$DIMTP
 40
0.0
  9
$DIMTM
 40
0.0
  9
$DIMTXT
 40
0.18
  9
$DIMCEN
 40
0.09
  9
$DIMTSZ
 40
0.0
  9
$DIMTOL
 70
     0
  9
$DIMLIM
 70
     0
  9
$DIMTIH
 70
     1
  9
$DIMTOH
 70
     1
  9
$DIMSE1
 70
     0
  9
$DIMSE2
 70
     0
  9
$DIMTAD
 70
     0
  9
$DIMZIN
 70
     0
  9
$DIMBLK
  1

  9
$DIMASO
 70
     1
  9
$DIMSHO
 70
     1
  9
$DIMPOST
  1

  9
$DIMAPOST
  1

  9
$DIMALT
 70
     0
  9
$DIMALTD
 70
     2
  9
$DIMALTF
 40
25.4
  9
$DIMLFAC
 40
1.0
  9
$DIMTOFL
 70
     0
  9
$DIMTVP
 40
0.0
  9
$DIMTIX
 70
     0
  9
$DIMSOXD
 70
     0
  9
$DIMSAH
 70
     0
  9
$DIMBLK1
  1

  9
$DIMBLK2
  1

  9
$DIMSTYLE
  2
Standard
  9
$DIMCLRD
 70
     0
  9
$DIMCLRE
 70
     0
  9
$DIMCLRT
 70
     0
  9
$DIMTFAC
 40
1.0
  9
$DIMGAP
 40
0.09
  9
$DIMJUST
 70
     0
  9
$DIMSD1
 70
     0
  9
$DIMSD2
 70
     0
  9
$DIMTOLJ
 70
     1
  9
$DIMTZIN
 70
     0
  9
$DIMALTZ
 70
     0
  9
$DIMALTTZ
 70
     0
  9
$DIMUPT
 70
     0
  9
$DIMDEC
 70
     4
  9
$DIMTDEC
 70
     4
  9
$DIMALTU
 70
     2
  9
$DIMALTTD
 70
     2
  9
$DIMTXSTY
  7
Standard
  9
$DIMAUNIT
 70
     0
  9
$DIMADEC
 70
     0
  9
$DIMALTRND
 40
0.0
  9
$DIMAZIN
 70
     0
  9
$DIMDSEP
 70
    46
  9
$DIMATFIT
 70
     3
  9
$DIMFRAC
 70
     0
  9
$DIMLDRBLK
  1

  9
$DIMLUNIT
 70
     2
  9
$DIMLWD
 70
    -2
  9
$DIMLWE
 70
    -2
  9
$DIMTMOVE
 70
     0
  9
$DIMFXL
 40
1.0
  9
$DIMFXLON
 70
     0
  9
$DIMJOGANG
 40
0.7853981633974483
  9
$DIMTFILL
 70
     0
  9
$DIMTFILLCLR
 70
     0
  9
$DIMARCSYM
 70
     0
  9
$DIMLTYPE
  6

  9
$DIMLTEX1
  6

  9
$DIMLTEX2
  6

  9
$LUNITS
 70
     2
  9
$LUPREC
 70
     4
  9
$SKETCHINC
 40
0.1
  9
$FILLETRAD
 40
0.5
  9
$AUNITS
 70
     0
  9
$AUPREC
 70
     0
  9
$MENU
  1
.
  9
$ELEVATION
 40
0.0
  9
$PELEVATION
 40
0.0
  9
$THICKNESS
 40
0.0
  9
$LIMCHECK
 70
     0
  9
$CHAMFERA
 40
0.5
  9
$CHAMFERB
 40
0.5
  9
$CHAMFERC
 40
1.0
  9
$CHAMFERD
 40
0.0
  9
$SKPOLY
 70
     0
  9
$TDCREATE
 40
2457003.363197928
  9
$TDUCREATE
 40
2457003.613197928
  9
$TDUPDATE
 40
2457003.36319794
  9
$TDUUPDATE
 40
2457003.61319794
  9
$TDINDWG
 40
0.0000000116
  9
$TDUSRTIMER
 40
0.0000000116
  9
$USRTIMER
 70
     1
  9
$ANGBASE
 50
0.0
  9
$ANGDIR
 70
     0
  9
$PDMODE
 70
     0
  9
$PDSIZE
 40
0.0
  9
$PLINEWID
 40
0.0
  9
$SPLFRAME
 70
     0
  9
$SPLINETYPE
 70
     6
  9
$SPLINESEGS
 70
     8
  9
$HANDSEED
  5
25E
  9
$SURFTAB1
 70
     6
  9
$SURFTAB2
 70
     6
  9
$SURFTYPE
 70
     6
  9
$SURFU
 70
     6
  9
$SURFV
 70
     6
  9
$UCSBASE
  2

  9
$UCSNAME
  2

  9
$UCSORG
 10
0.0
 20
0.0
 30
0.0
  9
$UCSXDIR
 10
1.0
 20
0.0
 30
0.0
  9
$UCSYDIR
 10
0.0
 20
1.0
 30
0.0
  9
$UCSORTHOREF
  2

  9
$UCSORTHOVIEW
 70
     0
  9
$UCSORGTOP
 10
0.0
 20
0.0
 30
0.0
  9
$UCSORGBOTTOM
 10
0.0
 20
0.0
 30
0.0
  9
$UCSORGLEFT
 10
0.0
 20
0.0
 30
0.0
  9
$UCSORGRIGHT
 10
0.0
 20
0.0
 30
0.0
  9
$UCSORGFRONT
 10
0.0
 20
0.0
 30
0.0
  9
$UCSORGBACK
 10
0.0
 20
0.0
 30
0.0
  9
$PUCSBASE
  2

  9
$PUCSNAME
  2

  9
$PUCSORG
 10
0.0
 20
0.0
 30
0.0
  9
$PUCSXDIR
 10
1.0
 20
0.0
 30
0.0
  9
$PUCSYDIR
 10
0.0
 20
1.0
 30
0.0
  9
$PUCSORTHOREF
  2

  9
$PUCSORTHOVIEW
 70
     0
  9
$PUCSORGTOP
 10
0.0
 20
0.0
 30
0.0
  9
$PUCSORGBOTTOM
 10
0.0
 20
0.0
 30
0.0
  9
$PUCSORGLEFT
 10
0.0
 20
0.0
 30
0.0
  9
$PUCSORGRIGHT
 10
0.0
 20
0.0
 30
0.0
  9
$PUCSORGFRONT
 10
0.0
 20
0.0
 30
0.0
  9
$PUCSORGBACK
 10
0.0
 20
0.0
 30
0.0
  9
$USERI1
 70
     0
  9
$USERI2
 70
     0
  9
$USERI3
 70
     0
  9
$USERI4
 70
     0
  9
$USERI5
 70
     0
  9
$USERR1
 40
0.0
  9
$USERR2
 40
0.0
  9
$USERR3
 40
0.0
  9
$USERR4
 40
0.0
  9
$USERR5
 40
0.0
  9
$WORLDVIEW
 70
     1
  9
$SHADEDGE
 70
     3
  9
$SHADEDIF
 70
    70
  9
$TILEMODE
 70
     1
  9
$MAXACTVP
 70
    64
  9
$PINSBASE
 10
0.0
 20
0.0
 30
0.0
  9
$PLIMCHECK
 70
     0
  9
$PEXTMIN
 10
1.000000000000000E+20
 20
1.000000000000000E+20
 30
1.000000000000000E+20
  9
$PEXTMAX
 10
-1.000000000000000E+20
 20
-1.000000000000000E+20
 30
-1.000000000000000E+20
  9
$PLIMMIN
 10
0.0
 20
0.0
  9
$PLIMMAX
 10
12.0
 20
9.0
  9
$UNITMODE
 70
     0
  9
$VISRETAIN
 70
     1
  9
$PLINEGEN
 70
     0
  9
$PSLTSCALE
 70
     1
  9
$TREEDEPTH
 70
  3020
  9
$CMLSTYLE
  2
Standard
  9
$CMLJUST
 70
     0
  9
$CMLSCALE
 40
1.0
  9
$PROXYGRAPHICS
 70
     1
  9
$MEASUREMENT
 70
     0
  9
$CELWEIGHT
370
    -1
  9
$ENDCAPS
280
     0
  9
$JOINSTYLE
280
     0
  9
$LWDISPLAY
290
     0
  9
$INSUNITS
 70
     1
  9
$HYPERLINKBASE
  1

  9
$STYLESHEET
  1

  9
$XEDIT
290
     1
  9
$CEPSNTYPE
380
     0
  9
$PSTYLEMODE
290
     1
  9
$FINGERPRINTGUID
  2
{3DA6B505-8314-4D83-85E4-D0369764DF59}
  9
$VERSIONGUID
  2
{FAEB1C32-E019-11D5-929B-00C0DF256EC4}
  9
$EXTNAMES
290
     1
  9
$PSVPSCALE
 40
0.0
  9
$OLESTARTUP
290
     0
  9
$SORTENTS
280
   127
  9
$INDEXCTL
280
     0
  9
$HIDETEXT
280
     1
  9
$XCLIPFRAME
290
     0
  9
$HALOGAP
280
     0
  9
$OBSCOLOR
 70
   257
  9
$OBSLTYPE
280
     0
  9
$INTERSECTIONDISPLAY
280
     0
  9
$INTERSECTIONCOLOR
 70
   257
  9
$DIMASSOC
280
     2
  9
$PROJECTNAME
  1

  9
$CAMERADISPLAY
290
     0
  9
$LENSLENGTH
 40
50.0
  9
$CAMERAHEIGHT
 40
0.0
  9
$STEPSPERSEC
 40
2.0
  9
$STEPSIZE
 40
6.0
  9
$3DDWFPREC
 40
2.0
  9
$PSOLWIDTH
 40
0.25
  9
$PSOLHEIGHT
 40
4.0
  9
$LOFTANG1
 40
1.570796326794897
  9
$LOFTANG2
 40
1.570796326794897
  9
$LOFTMAG1
 40
0.0
  9
$LOFTMAG2
 40
0.0
  9
$LOFTPARAM
 70
     7
  9
$LOFTNORMALS
280
     1
  9
$LATITUDE
 40
37.795
  9
$LONGITUDE
 40
-122.394
  9
$NORTHDIRECTION
 40
0.0
  9
$TIMEZONE
 70
 -8000
  9
$LIGHTGLYPHDISPLAY
280
     1
  9
$TILEMODELIGHTSYNCH
280
     1
  9
$SOLIDHIST
280
     1
  9
$SHOWHIST
280
     1
  9
$DWFFRAME
280
     2
  9
$DGNFRAME
280
     2
  9
$REALWORLDSCALE
290
     1
  9
$INTERFERECOLOR
 62
   256
  9
$CSHADOW
280
     0
  9
$SHADOWPLANELOCATION
 40
0.0
  0
ENDSEC
  0
SECTION
  2
CLASSES
  0
CLASS
  1
ACDBDICTIONARYWDFLT
  2
AcDbDictionaryWithDefault
  3
ObjectDBX Classes
 90
        0
 91
        4
280
     0
281
     0
  0
CLASS
  1
VISUALSTYLE
  2
AcDbVisualStyle
  3
ObjectDBX Classes
 90
     4095
 91
        4
280
     0
281
     0
  0
ENDSEC
  0
SECTION
  2
TABLES
  0
TABLE
  2
VPORT
  5
8
330
0
100
AcDbSymbolTable
 70
     1
  0
VPORT
  5
29
330
8
100
AcDbSymbolTableRecord
100
AcDbViewportTableRecord
  2
*Active
 70
     0
 10
0.0
 20
0.0
 11
1.0
 21
1.0
 12
10.42990654205607
 22
4.5
 13
0.0
 23
0.0
 14
0.5
 24
0.5
 15
0.5
 25
0.5
 16
0.0
 26
0.0
 36
1.0
 17
0.0
 27
0.0
 37
0.0
 40
9.0
 41
1.972972972850329
 42
50.0
 43
0.0
 44
0.0
 50
0.0
 51
0.0
 71
     0
 72
   100
 73
     1
 74
     3
 75
     0
 76
     0
 77
     0
 78
     0
281
     0
 65
     1
110
0.0
120
0.0
130
0.0
111
1.0
121
0.0
131
0.0
112
0.0
122
1.0
132
0.0
 79
     0
146
0.0
 60
     3
 61
     5
292
     1
282
     1
141
0.0
142
0.0
 63
   256
  0
ENDTAB
  0
TABLE
  2
LTYPE
  5
5
330
0
100
AcDbSymbolTable
 70
    11
  0
LTYPE
  5
14
330
5
100
AcDbSymbolTableRecord
100
AcDbLinetypeTableRecord
  2
ByBlock
 70
     0
  3

 72
    65
 73
     0
 40
0.0
  0
LTYPE
  5
15
330
5
100
AcDbSymbolTableRecord
100
AcDbLinetypeTableRecord
  2
ByLayer
 70
     0
  3

 72
    65
 73
     0
 40
0.0
  0
LTYPE
  5
16
330
5
100
AcDbSymbolTableRecord
100
AcDbLinetypeTableRecord
  2
Continuous
 70
     0
  3
Solid line
 72
    65
 73
     0
 40
0.0
  0
LTYPE
  5
60
330
5
100
AcDbSymbolTableRecord
100
AcDbLinetypeTableRecord
  2
Stitch_G
 70
     0
  3
Graphite's line style                   
 72
    65
 73
     8
 40
25.18000000715256
 49
1.0
 74
     0
 49
-0.0450000017881393
 74
     0
 49
8.0
 74
     0
 49
-0.0450000017881393
 74
     0
 49
8.0
 74
     0
 49
-0.0450000017881393
 74
     0
 49
8.0
 74
     0
 49
-0.0450000017881393
 74
     0
  0
LTYPE
  5
61
330
5
100
AcDbSymbolTableRecord
100
AcDbLinetypeTableRecord
  2
Cutting_G
 70
     0
  3
Graphite's line style                   
 72
    65
 73
    12
 40
52.27000001072884
 49
2.0
 74
     0
 49
-0.0450000017881393
 74
     0
 49
10.0
 74
     0
 49
-0.0450000017881393
 74
     0
 49
10.0
 74
     0
 49
-0.0450000017881393
 74
     0
 49
10.0
 74
     0
 49
-0.0450000017881393
 74
     0
 49
10.0
 74
     0
 49
-0.0450000017881393
 74
     0
 49
10.0
 74
     0
 49
-0.0450000017881393
 74
     0
  0
LTYPE
  5
62
330
5
100
AcDbSymbolTableRecord
100
AcDbLinetypeTableRecord
  2
Divide_G
 70
     0
  3
Graphite's line style                   
 72
    65
 73
     4
 40
0.75
 49
0.0
 74
     0
 49
-0.375
 74
     0
 49
0.375
 74
     0
 49
0.0
 74
     0
  0
LTYPE
  5
63
330
5
100
AcDbSymbolTableRecord
100
AcDbLinetypeTableRecord
  2
Border_G
 70
     0
  3
Graphite's line style                   
 72
    65
 73
     4
 40
0.5
 49
0.0
 74
     0
 49
-0.25
 74
     0
 49
0.25
 74
     0
 49
0.0
 74
     0
  0
LTYPE
  5
64
330
5
100
AcDbSymbolTableRecord
100
AcDbLinetypeTableRecord
  2
Dashdot_G
 70
     0
  3
Graphite's line style                   
 72
    65
 73
     4
 40
0.25
 49
0.0
 74
     0
 49
-0.125
 74
     0
 49
0.125
 74
     0
 49
0.0
 74
     0
  0
LTYPE
  5
65
330
5
100
AcDbSymbolTableRecord
100
AcDbLinetypeTableRecord
  2
Phantom_G
 70
     0
  3
Graphite's line style                   
 72
    65
 73
     6
 40
0.9674999937415123
 49
0.5
 74
     0
 49
-0.0724999979138374
 74
     0
 49
0.125
 74
     0
 49
-0.0724999979138374
 74
     0
 49
0.125
 74
     0
 49
-0.0724999979138374
 74
     0
  0
LTYPE
  5
66
330
5
100
AcDbSymbolTableRecord
100
AcDbLinetypeTableRecord
  2
Hidden_G
 70
     0
  3
Graphite's line style                   
 72
    65
 73
     2
 40
0.1974999979138374
 49
0.125
 74
     0
 49
-0.0724999979138374
 74
     0
  0
LTYPE
  5
67
330
5
100
AcDbSymbolTableRecord
100
AcDbLinetypeTableRecord
  2
Dashed_G
 70
     0
  3
Graphite's line style                   
 72
    65
 73
     2
 40
0.375
 49
0.25
 74
     0
 49
-0.125
 74
     0
  0
LTYPE
  5
68
330
5
100
AcDbSymbolTableRecord
100
AcDbLinetypeTableRecord
  2
Center_G
 70
     0
  3
Graphite's line style                   
 72
    65
 73
     2
 40
0.5724999979138374
 49
0.5
 74
     0
 49
-0.0724999979138374
 74
     0
  0
LTYPE
  5
69
330
5
100
AcDbSymbolTableRecord
100
AcDbLinetypeTableRecord
  2
Dotted_G
 70
     0
  3

 72
    65
 73
     2
 40
0.1001
 49
0.0001
 74
     0
 49
-0.1
 74
     2
 75
     0
340
0
 46
0.0
 50
0.0
 44
0.0
 45
0.0
  9
.
  0
ENDTAB
  0
TABLE
  2
LAYER
  5
2
330
0
100
AcDbSymbolTable
 70
    11
  0
LAYER
  5
10
330
2
100
AcDbSymbolTableRecord
100
AcDbLayerTableRecord
  2
0
 70
     0
 62
     7
  6
Continuous
370
    -3
390
F
347
0
  0
LAYER
  5
6A
330
2
100
AcDbSymbolTableRecord
100
AcDbLayerTableRecord
  2
Layer1
 70
     0
 62
     7
  6
Continuous
370
    -3
390
F
347
0
  0
LAYER
  5
6B
330
2
100
AcDbSymbolTableRecord
100
AcDbLayerTableRecord
  2
Construction
 70
     0
 62
     7
  6
Continuous
370
    -3
390
F
347
0
  0
LAYER
  5
6C
330
2
100
AcDbSymbolTableRecord
100
AcDbLayerTableRecord
  2
Dimension
 70
     0
 62
     7
  6
Continuous
370
    -3
390
F
347
0
  0
LAYER
  5
6D
330
2
100
AcDbSymbolTableRecord
100
AcDbLayerTableRecord
  2
Thru-cut
 70
     0
 62
     7
  6
Continuous
370
    -3
390
F
347
0
  0
LAYER
  5
6E
330
2
100
AcDbSymbolTableRecord
100
AcDbLayerTableRecord
  2
Crease
 70
     0
 62
     7
  6
Continuous
370
    -3
390
F
347
0
  0
LAYER
  5
6F
330
2
100
AcDbSymbolTableRecord
100
AcDbLayerTableRecord
  2
MainDimensions
 70
     0
 62
     7
  6
Continuous
370
    -3
390
F
347
0
  0
LAYER
  5
70
330
2
100
AcDbSymbolTableRecord
100
AcDbLayerTableRecord
  2
NoMeasure
 70
     0
 62
     7
  6
Continuous
370
    -3
390
F
347
0
  0
LAYER
  5
71
330
2
100
AcDbSymbolTableRecord
100
AcDbLayerTableRecord
  2
Pref-cut
 70
     0
 62
     7
  6
Continuous
370
    -3
390
F
347
0
  0
LAYER
  5
72
330
2
100
AcDbSymbolTableRecord
100
AcDbLayerTableRecord
  2
Text
 70
     0
 62
     7
  6
Continuous
370
    -3
390
F
347
0
  0
LAYER
  5
73
330
2
100
AcDbSymbolTableRecord
100
AcDbLayerTableRecord
  2
Perf-cut|000~999-090
 70
     0
 62
     7
  6
Continuous
370
    -3
390
F
347
0
  0
ENDTAB
  0
TABLE
  2
STYLE
  5
3
330
0
100
AcDbSymbolTable
 70
     4
  0
STYLE
  5
11
330
3
100
AcDbSymbolTableRecord
100
AcDbTextStyleTableRecord
  2
Standard
 70
     0
 40
0.0
 41
1.0
 50
0.0
 71
     0
 42
0.2
  3
txt
  4

  0
STYLE
  5
3B
330
3
100
AcDbSymbolTableRecord
100
AcDbTextStyleTableRecord
  2
OdaShxStyle
 70
     0
 40
0.0
 41
1.0
 50
0.0
 71
     0
 42
0.2
  3
txt
  4

  0
STYLE
  5
3C
330
3
100
AcDbSymbolTableRecord
100
AcDbTextStyleTableRecord
  2
OdaTtfStyle
 70
     0
 40
0.0
 41
1.0
 50
0.0
 71
     0
 42
0.2
  3
VERDANA.TTF
  4

1001
ACAD
1000
Verdana
1071
       34
  0
STYLE
  5
3D
330
3
100
AcDbSymbolTableRecord
100
AcDbTextStyleTableRecord
  2

 70
     1
 40
0.0
 41
1.0
 50
0.0
 71
     0
 42
22.45
  3
ltypeshp.shx
  4

  0
ENDTAB
  0
TABLE
  2
VIEW
  5
6
330
0
100
AcDbSymbolTable
 70
     0
  0
ENDTAB
  0
TABLE
  2
UCS
  5
7
330
0
100
AcDbSymbolTable
 70
     0
  0
ENDTAB
  0
TABLE
  2
APPID
  5
9
330
0
100
AcDbSymbolTable
 70
     1
  0
APPID
  5
12
330
9
100
AcDbSymbolTableRecord
100
AcDbRegAppTableRecord
  2
ACAD
 70
     0
  0
ENDTAB
  0
TABLE
  2
DIMSTYLE
  5
A
330
0
100
AcDbSymbolTable
 70
     9
100
AcDbDimStyleTable
  0
DIMSTYLE
105
27
330
A
100
AcDbSymbolTableRecord
100
AcDbDimStyleTableRecord
  2
Standard
 70
     0
340
11
  0
DIMSTYLE
105
3E
330
A
100
AcDbSymbolTableRecord
100
AcDbDimStyleTableRecord
  2
OdaDimStyle0
 70
     0
340
11
  0
DIMSTYLE
105
3F
330
A
100
AcDbSymbolTableRecord
100
AcDbDimStyleTableRecord
  2
OdaDimStyle1
 70
     0
340
11
  0
DIMSTYLE
105
40
330
A
100
AcDbSymbolTableRecord
100
AcDbDimStyleTableRecord
  2
OdaDimStyle2
 70
     0
340
11
342
41
  0
DIMSTYLE
105
47
330
A
100
AcDbSymbolTableRecord
100
AcDbDimStyleTableRecord
  2
OdaDimStyle3
 70
     0
340
11
342
48
  0
DIMSTYLE
105
4B
330
A
100
AcDbSymbolTableRecord
100
AcDbDimStyleTableRecord
  2
OdaDimStyle4
 70
     0
340
11
342
4C
  0
DIMSTYLE
105
50
330
A
100
AcDbSymbolTableRecord
100
AcDbDimStyleTableRecord
  2
OdaDimStyle5
 70
     0
340
11
  0
DIMSTYLE
105
51
330
A
100
AcDbSymbolTableRecord
100
AcDbDimStyleTableRecord
  2
OdaDimStyle6
 70
     0
340
11
342
52
  0
DIMSTYLE
105
5A
330
A
100
AcDbSymbolTableRecord
100
AcDbDimStyleTableRecord
  2
OdaDimStyle7
 70
     0
340
11
342
5B
  0
ENDTAB
  0
TABLE
  2
BLOCK_RECORD
  5
1
330
0
100
AcDbSymbolTable
 70
     6
  0
BLOCK_RECORD
  5
1F
330
1
100
AcDbSymbolTableRecord
100
AcDbBlockTableRecord
  2
*Model_Space
340
22
 70
     0
280
     1
281
     0
  0
BLOCK_RECORD
  5
1B
330
1
100
AcDbSymbolTableRecord
100
AcDbBlockTableRecord
  2
*Paper_Space
340
1E
 70
     0
280
     1
281
     0
  0
BLOCK_RECORD
  5
23
330
1
100
AcDbSymbolTableRecord
100
AcDbBlockTableRecord
  2
*Paper_Space0
340
26
 70
     0
280
     1
281
     0
  0
BLOCK_RECORD
  5
41
330
1
100
AcDbSymbolTableRecord
100
AcDbBlockTableRecord
  2
_CLOSEDBLANK
340
0
 70
     0
280
     1
281
     0
  0
BLOCK_RECORD
  5
48
330
1
100
AcDbSymbolTableRecord
100
AcDbBlockTableRecord
  2
_NONE
340
0
 70
     0
280
     1
281
     0
  0
BLOCK_RECORD
  5
4C
330
1
100
AcDbSymbolTableRecord
100
AcDbBlockTableRecord
  2
_OBLIQUE
340
0
 70
     0
280
     1
281
     0
  0
BLOCK_RECORD
  5
52
330
1
100
AcDbSymbolTableRecord
100
AcDbBlockTableRecord
  2
_DOT
340
0
 70
     0
280
     1
281
     0
  0
BLOCK_RECORD
  5
5B
330
1
100
AcDbSymbolTableRecord
100
AcDbBlockTableRecord
  2
_DOTBLANK
340
0
 70
     0
280
     1
281
     0
  0
ENDTAB
  0
ENDSEC
  0
SECTION
  2
BLOCKS
  0
BLOCK
  5
20
330
1F
100
AcDbEntity
  8
0
100
AcDbBlockBegin
  2
*Model_Space
 70
     0
 10
0.0
 20
0.0
 30
0.0
  3
*Model_Space
  1

  0
ENDBLK
  5
21
330
1F
100
AcDbEntity
  8
0
100
AcDbBlockEnd
  0
BLOCK
  5
1C
330
1B
100
AcDbEntity
 67
     1
  8
0
100
AcDbBlockBegin
  2
*Paper_Space
 70
     0
 10
0.0
 20
0.0
 30
0.0
  3
*Paper_Space
  1

  0
ENDBLK
  5
1D
330
1B
100
AcDbEntity
 67
     1
  8
0
100
AcDbBlockEnd
  0
BLOCK
  5
24
330
23
100
AcDbEntity
  8
0
100
AcDbBlockBegin
  2
*Paper_Space0
 70
     0
 10
0.0
 20
0.0
 30
0.0
  3
*Paper_Space0
  1

  0
ENDBLK
  5
25
330
23
100
AcDbEntity
  8
0
100
AcDbBlockEnd
  0
BLOCK
  5
42
330
41
100
AcDbEntity
  8
0
100
AcDbBlockBegin
  2
_CLOSEDBLANK
 70
     0
 10
0.0
 20
0.0
 30
0.0
  3
_CLOSEDBLANK
  1

  0
LINE
  5
44
330
41
100
AcDbEntity
  8
0
  6
ByBlock
 62
     0
370
    -2
100
AcDbLine
 10
-1.0
 20
0.166667
 30
0.0
 11
0.0
 21
0.0
 31
0.0
  0
LINE
  5
45
330
41
100
AcDbEntity
  8
0
  6
ByBlock
 62
     0
370
    -2
100
AcDbLine
 10
0.0
 20
0.0
 30
0.0
 11
-1.0
 21
-0.166667
 31
0.0
  0
LINE
  5
46
330
41
100
AcDbEntity
  8
0
  6
ByBlock
 62
     0
370
    -2
100
AcDbLine
 10
-1.0
 20
0.166667
 30
0.0
 11
-1.0
 21
-0.166667
 31
0.0
  0
ENDBLK
  5
43
330
41
100
AcDbEntity
  8
0
100
AcDbBlockEnd
  0
BLOCK
  5
49
330
48
100
AcDbEntity
  8
0
100
AcDbBlockBegin
  2
_NONE
 70
     0
 10
0.0
 20
0.0
 30
0.0
  3
_NONE
  1

  0
ENDBLK
  5
4A
330
48
100
AcDbEntity
  8
0
100
AcDbBlockEnd
  0
BLOCK
  5
4D
330
4C
100
AcDbEntity
  8
0
100
AcDbBlockBegin
  2
_OBLIQUE
 70
     0
 10
0.0
 20
0.0
 30
0.0
  3
_OBLIQUE
  1

  0
LINE
  5
4F
330
4C
100
AcDbEntity
  8
0
  6
ByBlock
 62
     0
370
    -2
100
AcDbLine
 10
-0.5
 20
-0.5
 30
0.0
 11
0.5
 21
0.5
 31
0.0
  0
ENDBLK
  5
4E
330
4C
100
AcDbEntity
  8
0
100
AcDbBlockEnd
  0
BLOCK
  5
53
330
52
100
AcDbEntity
  8
0
100
AcDbBlockBegin
  2
_DOT
 70
     0
 10
0.0
 20
0.0
 30
0.0
  3
_DOT
  1

  0
POLYLINE
  5
55
330
52
100
AcDbEntity
  8
0
  6
ByBlock
 62
     0
100
AcDb2dPolyline
 66
     1
 10
0.0
 20
0.0
 30
0.0
 70
     1
 40
0.5
 41
0.5
  0
VERTEX
  5
57
330
55
100
AcDbEntity
  8
0
  6
ByBlock
 62
     0
100
AcDbVertex
100
AcDb2dVertex
 10
-0.25
 20
0.0
 30
0.0
 42
1.0
  0
VERTEX
  5
58
330
55
100
AcDbEntity
  8
0
  6
ByBlock
 62
     0
100
AcDbVertex
100
AcDb2dVertex
 10
0.25
 20
0.0
 30
0.0
 42
1.0
  0
SEQEND
  5
59
330
55
100
AcDbEntity
  8
0
  6
ByBlock
 62
     0
  0
LINE
  5
56
330
52
100
AcDbEntity
  8
0
  6
ByBlock
 62
     0
370
    -2
100
AcDbLine
 10
-0.5
 20
0.0
 30
0.0
 11
-1.0
 21
0.0
 31
0.0
  0
ENDBLK
  5
54
330
52
100
AcDbEntity
  8
0
100
AcDbBlockEnd
  0
BLOCK
  5
5C
330
5B
100
AcDbEntity
  8
0
100
AcDbBlockBegin
  2
_DOTBLANK
 70
     0
 10
0.0
 20
0.0
 30
0.0
  3
_DOTBLANK
  1

  0
CIRCLE
  5
5E
330
5B
100
AcDbEntity
  8
0
  6
ByBlock
 62
     0
370
    -2
100
AcDbCircle
 10
0.0
 20
0.0
 30
0.0
 40
0.5
  0
LINE
  5
5F
330
5B
100
AcDbEntity
  8
0
  6
ByBlock
 62
     0
370
    -2
100
AcDbLine
 10
-0.5
 20
0.0
 30
0.0
 11
-1.0
 21
0.0
 31
0.0
  0
ENDBLK
  5
5D
330
5B
100
AcDbEntity
  8
0
100
AcDbBlockEnd
  0
ENDSEC
  0
SECTION
  2
ENTITIES
  0
LINE
  5
74
330
1F
100
AcDbEntity
  8
Perf-cut|000~999-090
 62
   151
420
 11452415
370
    25
100
AcDbLine
 10
1189.162500000003
 20
0.0
 30
0.0
 11
1189.162500000003
 21
0.0
 31
0.0
  0
LINE
  5
75
330
1F
100
AcDbEntity
  8
Perf-cut|000~999-090
 62
   151
420
 11452415
370
    25
100
AcDbLine
 10
1189.162500000003
 20
0.0
 30
0.0
 11
1189.162500000003
 21
0.0
 31
0.0
  0
LINE
  5
76
330
1F
100
AcDbEntity
  8
Perf-cut|000~999-090
 62
   151
420
 11452415
370
    25
100
AcDbLine
 10
968.4374999999999
 20
0.0
 30
0.0
 11
968.4374999999999
 21
0.0
 31
0.0
  0
LINE
  5
77
330
1F
100
AcDbEntity
  8
Perf-cut|000~999-090
 62
   151
420
 11452415
370
    25
100
AcDbLine
 10
968.4374999999999
 20
0.0
 30
0.0
 11
968.4374999999999
 21
0.0
 31
0.0
  0
LINE
  5
78
330
1F
100
AcDbEntity
  8
Perf-cut|000~999-090
 62
   151
420
 11452415
370
    25
100
AcDbLine
 10
968.4374999999999
 20
0.0
 30
0.0
 11
968.4374999999999
 21
0.0
 31
0.0
  0
LINE
  5
79
330
1F
100
AcDbEntity
  8
Perf-cut|000~999-090
 62
   151
420
 11452415
370
    25
100
AcDbLine
 10
1189.162500000003
 20
0.0
 30
0.0
 11
1189.162500000003
 21
0.0
 31
0.0
  0
LINE
  5
7A
330
1F
100
AcDbEntity
  8
Crease
 62
     3
420
    65280
370
     5
100
AcDbLine
 10
968.4374999999999
 20
0.0
 30
0.0
 11
968.4374999999999
 21
0.0
 31
0.0
  0
LINE
  5
7B
330
1F
100
AcDbEntity
  8
Crease
 62
     3
420
    65280
370
     5
100
AcDbLine
 10
968.4374999999999
 20
0.0
 30
0.0
 11
968.4374999999999
 21
0.0
 31
0.0
  0
LINE
  5
7C
330
1F
100
AcDbEntity
  8
Crease
 62
     3
420
    65280
370
     5
100
AcDbLine
 10
968.4374999999999
 20
0.0
 30
0.0
 11
968.4374999999999
 21
0.0
 31
0.0
  0
LINE
  5
7D
330
1F
100
AcDbEntity
  8
Crease
 62
     3
420
    65280
370
     5
100
AcDbLine
 10
968.4374999999999
 20
0.0
 30
0.0
 11
968.4374999999999
 21
0.0
 31
0.0
  0
LINE
  5
7E
330
1F
100
AcDbEntity
  8
Perf-cut|000~999-090
 62
   151
420
 11452415
370
    25
100
AcDbLine
 10
968.4374999999999
 20
0.0
 30
0.0
 11
968.4374999999999
 21
0.0
 31
0.0
  0
LINE
  5
7F
330
1F
100
AcDbEntity
  8
Perf-cut|000~999-090
 62
   151
420
 11452415
370
    25
100
AcDbLine
 10
1189.162500000003
 20
0.0
 30
0.0
 11
1189.162500000003
 21
0.0
 31
0.0
  0
LINE
  5
80
330
1F
100
AcDbEntity
  8
Perf-cut|000~999-090
 62
   151
420
 11452415
370
    25
100
AcDbLine
 10
1189.162500000003
 20
0.0
 30
0.0
 11
1189.162500000003
 21
0.0
 31
0.0
  0
LINE
  5
81
330
1F
100
AcDbEntity
  8
Perf-cut|000~999-090
 62
   151
420
 11452415
370
    25
100
AcDbLine
 10
968.4374999999999
 20
0.0
 30
0.0
 11
968.4374999999999
 21
0.0
 31
0.0
  0
LINE
  5
82
330
1F
100
AcDbEntity
  8
Perf-cut|000~999-090
 62
   151
420
 11452415
370
    25
100
AcDbLine
 10
968.4374999999999
 20
0.0
 30
0.0
 11
968.4374999999999
 21
0.0
 31
0.0
  0
LINE
  5
83
330
1F
100
AcDbEntity
  8
Crease
 62
     3
420
    65280
370
     5
100
AcDbLine
 10
968.4374999999999
 20
0.0
 30
0.0
 11
968.4374999999999
 21
0.0
 31
0.0
  0
LINE
  5
84
330
1F
100
AcDbEntity
  8
Crease
 62
     3
420
    65280
370
     5
100
AcDbLine
 10
968.4374999999999
 20
0.0
 30
0.0
 11
968.4374999999999
 21
0.0
 31
0.0
  0
LINE
  5
85
330
1F
100
AcDbEntity
  8
Crease
 62
     3
420
    65280
370
     5
100
AcDbLine
 10
968.4374999999999
 20
0.0
 30
0.0
 11
968.4374999999999
 21
0.0
 31
0.0
  0
LINE
  5
86
330
1F
100
AcDbEntity
  8
Crease
 62
     3
420
    65280
370
     5
100
AcDbLine
 10
968.4374999999999
 20
0.0
 30
0.0
 11
968.4374999999999
 21
0.0
 31
0.0
  0
LINE
  5
87
330
1F
100
AcDbEntity
  8
Crease
 62
     3
420
    65280
370
     5
100
AcDbLine
 10
968.4374999999999
 20
0.0
 30
0.0
 11
968.4374999999999
 21
0.0
 31
0.0
  0
LINE
  5
88
330
1F
100
AcDbEntity
  8
Thru-cut
 62
     5
420
      255
370
     5
100
AcDbLine
 10
812.8625
 20
0.0
 30
0.0
 11
912.8749999999999
 21
0.0
 31
0.0
  0
LINE
  5
89
330
1F
100
AcDbEntity
  8
Thru-cut
 62
     5
420
      255
370
     5
100
AcDbLine
 10
706.5
 20
0.0
 30
0.0
 11
804.925
 21
0.0
 31
0.0
  0
LINE
  5
8A
330
1F
100
AcDbEntity
  8
Thru-cut
 62
     5
420
      255
370
     5
100
AcDbLine
 10
812.8625
 20
0.0
 30
0.0
 11
812.8625
 21
42.8625
 31
0.0
  0
LINE
  5
8B
330
1F
100
AcDbEntity
  8
Crease
 62
     3
420
    65280
370
     5
100
AcDbLine
 10
968.4374999999999
 20
0.0
 30
0.0
 11
968.4374999999999
 21
0.0
 31
0.0
  0
LINE
  5
8C
330
1F
100
AcDbEntity
  8
Crease
 62
     3
420
    65280
370
     5
100
AcDbLine
 10
968.4374999999999
 20
0.0
 30
0.0
 11
968.4374999999999
 21
0.0
 31
0.0
  0
LINE
  5
8D
330
1F
100
AcDbEntity
  8
Crease
 62
     3
420
    65280
370
     5
100
AcDbLine
 10
968.4374999999999
 20
0.0
 30
0.0
 11
968.4374999999999
 21
0.0
 31
0.0
  0
LINE
  5
8E
330
1F
100
AcDbEntity
  8
Thru-cut
 62
     5
420
      255
370
     5
100
AcDbLine
 10
26.9875
 20
511.175
 30
0.0
 11
-23.8125
 21
511.175
 31
0.0
  0
LINE
  5
8F
330
1F
100
AcDbEntity
  8
Thru-cut
 62
     5
420
      255
370
     5
100
AcDbLine
 10
0.0
 20
579.4375
 30
0.0
 11
0.0
 21
628.65
 31
0.0
  0
LINE
  5
90
330
1F
100
AcDbEntity
  8
Thru-cut
 62
     5
420
      255
370
     5
100
AcDbLine
 10
0.0
 20
628.65
 30
0.0
 11
131.7625
 21
628.65
 31
0.0
  0
LINE
  5
91
330
1F
100
AcDbEntity
  8
Thru-cut
 62
     5
420
      255
370
     5
100
AcDbLine
 10
88.89999999999999
 20
579.4375
 30
0.0
 11
0.0
 21
579.4375
 31
0.0
  0
LINE
  5
92
330
1F
100
AcDbEntity
  8
Thru-cut
 62
     5
420
      255
370
     5
100
AcDbLine
 10
26.9875
 20
377.825
 30
0.0
 11
-23.8125
 21
377.825
 31
0.0
  0
LINE
  5
93
330
1F
100
AcDbEntity
  8
Thru-cut
 62
     5
420
      255
370
     5
100
AcDbLine
 10
88.89999999999999
 20
49.2125
 30
0.0
 11
0.0
 21
49.2125
 31
0.0
  0
LINE
  5
94
330
1F
100
AcDbEntity
  8
Thru-cut
 62
     5
420
      255
370
     5
100
AcDbLine
 10
26.9875
 20
244.475
 30
0.0
 11
-23.8125
 21
244.475
 31
0.0
  0
LINE
  5
95
330
1F
100
AcDbEntity
  8
Thru-cut
 62
     5
420
      255
370
     5
100
AcDbLine
 10
26.9875
 20
117.475
 30
0.0
 11
-23.8125
 21
117.475
 31
0.0
  0
LINE
  5
96
330
1F
100
AcDbEntity
  8
Thru-cut
 62
     5
420
      255
370
     5
100
AcDbLine
 10
0.0
 20
49.2125
 30
0.0
 11
0.0
 21
0.0
 31
0.0
  0
LINE
  5
97
330
1F
100
AcDbEntity
  8
Thru-cut
 62
     5
420
      255
370
     5
100
AcDbLine
 10
0.0
 20
0.0
 30
0.0
 11
131.7625
 21
0.0
 31
0.0
  0
LINE
  5
98
330
1F
100
AcDbEntity
  8
Perf-cut|000~999-090
 62
   151
420
 11452415
370
    25
100
AcDbLine
 10
1189.162500000003
 20
0.0
 30
0.0
 11
1189.162500000003
 21
0.0
 31
0.0
  0
LINE
  5
99
330
1F
100
AcDbEntity
  8
Perf-cut|000~999-090
 62
   151
420
 11452415
370
    25
100
AcDbLine
 10
1189.162500000003
 20
0.0
 30
0.0
 11
1189.162500000003
 21
0.0
 31
0.0
  0
LINE
  5
9A
330
1F
100
AcDbEntity
  8
Thru-cut
 62
     5
420
      255
370
     5
100
AcDbLine
 10
479.7363919710468
 20
-4.762499999999999
 30
0.0
 11
481.0125
 21
0.0
 31
0.0
  0
LINE
  5
9B
330
1F
100
AcDbEntity
  8
Thru-cut
 62
     5
420
      255
370
     5
100
AcDbLine
 10
411.1625
 20
50.8
 30
0.0
 11
411.1625
 21
0.0
 31
0.0
  0
LINE
  5
9C
330
1F
100
AcDbEntity
  8
Thru-cut
 62
     5
420
      255
370
     5
100
AcDbLine
 10
265.1125
 20
0.0
 30
0.0
 11
303.2125
 21
0.0
 31
0.0
  0
LINE
  5
9D
330
1F
100
AcDbEntity
  8
Thru-cut
 62
     5
420
      255
370
     5
100
AcDbLine
 10
239.7125
 20
0.0
 30
0.0
 11
240.9886080289532
 21
-4.762499999999999
 31
0.0
  0
LINE
  5
9E
330
1F
100
AcDbEntity
  8
Thru-cut
 62
     5
420
      255
370
     5
100
AcDbLine
 10
265.1125
 20
0.0
 30
0.0
 11
263.8363919710466
 21
-4.762499999999999
 31
0.0
  0
LINE
  5
9F
330
1F
100
AcDbEntity
  8
Thru-cut
 62
     5
420
      255
370
     5
100
AcDbLine
 10
417.5125
 20
57.11824999999999
 30
0.0
 11
417.5125
 21
0.0
 31
0.0
  0
LINE
  5
A0
330
1F
100
AcDbEntity
  8
Thru-cut
 62
     5
420
      255
370
     5
100
AcDbLine
 10
195.2625
 20
50.8
 30
0.0
 11
195.2625
 21
0.0
 31
0.0
  0
LINE
  5
A1
330
1F
100
AcDbEntity
  8
Thru-cut
 62
     5
420
      255
370
     5
100
AcDbLine
 10
201.6125
 20
57.11824999999999
 30
0.0
 11
201.6125
 21
0.0
 31
0.0
  0
LINE
  5
A2
330
1F
100
AcDbEntity
  8
Perf-cut|000~999-090
 62
   151
420
 11452415
370
    25
100
AcDbLine
 10
88.89999999999999
 20
0.0
 30
0.0
 11
88.89999999999999
 21
49.2125
 31
0.0
  0
LINE
  5
A3
330
1F
100
AcDbEntity
  8
Thru-cut
 62
     5
420
      255
370
     5
100
AcDbLine
 10
373.0625
 20
0.0
 30
0.0
 11
371.7863919710468
 21
-4.762499999999999
 31
0.0
  0
LINE
  5
A4
330
1F
100
AcDbEntity
  8
Thru-cut
 62
     5
420
      255
370
     5
100
AcDbLine
 10
201.6125
 20
0.0
 30
0.0
 11
239.7125
 21
0.0
 31
0.0
  0
LINE
  5
A5
330
1F
100
AcDbEntity
  8
Thru-cut
 62
     5
420
      255
370
     5
100
AcDbLine
 10
309.5625
 20
0.0
 30
0.0
 11
347.6625
 21
0.0
 31
0.0
  0
LINE
  5
A6
330
1F
100
AcDbEntity
  8
Thru-cut
 62
     5
420
      255
370
     5
100
AcDbLine
 10
133.0386080289532
 20
-4.762499999999999
 30
0.0
 11
155.8863919710467
 21
-4.762499999999999
 31
0.0
  0
LINE
  5
A7
330
1F
100
AcDbEntity
  8
Perf-cut|000~999-090
 62
   151
420
 11452415
370
    25
100
AcDbLine
 10
1189.162500000003
 20
0.0
 30
0.0
 11
1189.162500000003
 21
0.0
 31
0.0
  0
LINE
  5
A8
330
1F
100
AcDbEntity
  8
Perf-cut|000~999-090
 62
   151
420
 11452415
370
    25
100
AcDbLine
 10
1189.162500000003
 20
0.0
 30
0.0
 11
1189.162500000003
 21
0.0
 31
0.0
  0
LINE
  5
A9
330
1F
100
AcDbEntity
  8
Thru-cut
 62
     5
420
      255
370
     5
100
AcDbLine
 10
1189.162500000003
 20
0.0
 30
0.0
 11
1139.950000000003
 21
0.0
 31
0.0
  0
LINE
  5
AA
330
1F
100
AcDbEntity
  8
Thru-cut
 62
     5
420
      255
370
     5
100
AcDbLine
 10
1189.162500000003
 20
0.0
 30
0.0
 11
1189.162500000003
 21
144.4625
 31
0.0
  0
LINE
  5
AB
330
1F
100
AcDbEntity
  8
Thru-cut
 62
     5
420
      255
370
     5
100
AcDbLine
 10
1082.800000000003
 20
0.0
 30
0.0
 11
1082.800000000003
 21
144.4625
 31
0.0
  0
LINE
  5
AC
330
1F
100
AcDbEntity
  8
Thru-cut
 62
     5
420
      255
370
     5
100
AcDbLine
 10
1025.650000000003
 20
0.0
 30
0.0
 11
1025.650000000003
 21
42.8625
 31
0.0
  0
LINE
  5
AD
330
1F
100
AcDbEntity
  8
Thru-cut
 62
     5
420
      255
370
     5
100
AcDbLine
 10
1033.587500000003
 20
0.0
 30
0.0
 11
1033.587500000003
 21
42.8625
 31
0.0
  0
LINE
  5
AE
330
1F
100
AcDbEntity
  8
Thru-cut
 62
     5
420
      255
370
     5
100
AcDbLine
 10
1139.950000000003
 20
0.0
 30
0.0
 11
1139.950000000003
 21
42.8625
 31
0.0
  0
LINE
  5
AF
330
1F
100
AcDbEntity
  8
Thru-cut
 62
     5
420
      255
370
     5
100
AcDbLine
 10
1132.012500000003
 20
0.0
 30
0.0
 11
1132.012500000003
 21
42.8625
 31
0.0
  0
LINE
  5
B0
330
1F
100
AcDbEntity
  8
Thru-cut
 62
     5
420
      255
370
     5
100
AcDbLine
 10
1132.012500000003
 20
0.0
 30
0.0
 11
1033.587500000003
 21
0.0
 31
0.0
  0
LINE
  5
B1
330
1F
100
AcDbEntity
  8
Perf-cut|000~999-090
 62
   151
420
 11452415
370
    25
100
AcDbLine
 10
1189.162500000003
 20
0.0
 30
0.0
 11
1189.162500000003
 21
0.0
 31
0.0
  0
LINE
  5
B2
330
1F
100
AcDbEntity
  8
Perf-cut|000~999-090
 62
   151
420
 11452415
370
    25
100
AcDbLine
 10
968.4374999999999
 20
0.0
 30
0.0
 11
968.4374999999999
 21
0.0
 31
0.0
  0
LINE
  5
B3
330
1F
100
AcDbEntity
  8
Perf-cut|000~999-090
 62
   151
420
 11452415
370
    25
100
AcDbLine
 10
1189.162500000003
 20
0.0
 30
0.0
 11
1189.162500000003
 21
0.0
 31
0.0
  0
LINE
  5
B4
330
1F
100
AcDbEntity
  8
Thru-cut
 62
     5
420
      255
370
     5
100
AcDbLine
 10
131.7625
 20
0.0
 30
0.0
 11
133.0386080289532
 21
-4.762499999999999
 31
0.0
  0
LINE
  5
B5
330
1F
100
AcDbEntity
  8
Crease
 62
     3
420
    65280
370
     5
100
AcDbLine
 10
968.4374999999999
 20
0.0
 30
0.0
 11
968.4374999999999
 21
0.0
 31
0.0
  0
LINE
  5
B6
330
1F
100
AcDbEntity
  8
Crease
 62
     3
420
    65280
370
     5
100
AcDbLine
 10
968.4374999999999
 20
0.0
 30
0.0
 11
968.4374999999999
 21
0.0
 31
0.0
  0
LINE
  5
B7
330
1F
100
AcDbEntity
  8
Crease
 62
     3
420
    65280
370
     5
100
AcDbLine
 10
968.4374999999999
 20
0.0
 30
0.0
 11
968.4374999999999
 21
0.0
 31
0.0
  0
LINE
  5
B8
330
1F
100
AcDbEntity
  8
Crease
 62
     3
420
    65280
370
     5
100
AcDbLine
 10
968.4374999999999
 20
0.0
 30
0.0
 11
968.4374999999999
 21
0.0
 31
0.0
  0
LINE
  5
B9
330
1F
100
AcDbEntity
  8
Thru-cut
 62
     5
420
      255
370
     5
100
AcDbLine
 10
455.6125
 20
0.0
 30
0.0
 11
417.5125
 21
0.0
 31
0.0
  0
LINE
  5
BA
330
1F
100
AcDbEntity
  8
Thru-cut
 62
     5
420
      255
370
     5
100
AcDbLine
 10
968.4374999999999
 20
0.0
 30
0.0
 11
968.4374999999999
 21
479.425
 31
0.0
  0
LINE
  5
BB
330
1F
100
AcDbEntity
  8
Thru-cut
 62
     5
420
      255
370
     5
100
AcDbLine
 10
862.0749999999999
 20
0.0
 30
0.0
 11
862.0749999999999
 21
479.425
 31
0.0
  0
LINE
  5
BC
330
1F
100
AcDbEntity
  8
Thru-cut
 62
     5
420
      255
370
     5
100
AcDbLine
 10
976.4375000000028
 20
0.0
 30
0.0
 11
1025.650000000003
 21
0.0
 31
0.0
  0
LINE
  5
BD
330
1F
100
AcDbEntity
  8
Thru-cut
 62
     5
420
      255
370
     5
100
AcDbLine
 10
373.0625
 20
0.0
 30
0.0
 11
411.1625
 21
0.0
 31
0.0
  0
LINE
  5
BE
330
1F
100
AcDbEntity
  8
Crease
 62
     3
420
    65280
370
     5
100
AcDbLine
 10
968.4374999999999
 20
0.0
 30
0.0
 11
968.4374999999999
 21
0.0
 31
0.0
  0
LINE
  5
BF
330
1F
100
AcDbEntity
  8
Thru-cut
 62
     5
420
      255
370
     5
100
AcDbLine
 10
649.3499999999999
 20
479.425
 30
0.0
 11
649.3499999999999
 21
0.0
 31
0.0
  0
LINE
  5
C0
330
1F
100
AcDbEntity
  8
Perf-cut|000~999-090
 62
   151
420
 11452415
370
    25
100
AcDbLine
 10
968.4374999999999
 20
0.0
 30
0.0
 11
968.4374999999999
 21
0.0
 31
0.0
  0
LINE
  5
C1
330
1F
100
AcDbEntity
  8
Thru-cut
 62
     5
420
      255
370
     5
100
AcDbLine
 10
706.5
 20
0.0
 30
0.0
 11
706.5
 21
42.8625
 31
0.0
  0
LINE
  5
C2
330
1F
100
AcDbEntity
  8
Thru-cut
 62
     5
420
      255
370
     5
100
AcDbLine
 10
976.4375000000028
 20
144.4625
 30
0.0
 11
976.4375000000028
 21
0.0
 31
0.0
  0
LINE
  5
C3
330
1F
100
AcDbEntity
  8
Thru-cut
 62
     5
420
      255
370
     5
100
AcDbLine
 10
698.5625
 20
0.0
 30
0.0
 11
698.5625
 21
42.8625
 31
0.0
  0
LINE
  5
C4
330
1F
100
AcDbEntity
  8
Thru-cut
 62
     5
420
      255
370
     5
100
AcDbLine
 10
804.925
 20
0.0
 30
0.0
 11
804.925
 21
42.8625
 31
0.0
  0
LINE
  5
C5
330
1F
100
AcDbEntity
  8
Thru-cut
 62
     5
420
      255
370
     5
100
AcDbLine
 10
917.6374999999999
 20
0.0
 30
0.0
 11
917.6374999999999
 21
42.8625
 31
0.0
  0
LINE
  5
C6
330
1F
100
AcDbEntity
  8
Thru-cut
 62
     5
420
      255
370
     5
100
AcDbLine
 10
912.8749999999999
 20
0.0
 30
0.0
 11
912.8749999999999
 21
42.8625
 31
0.0
  0
LINE
  5
C7
330
1F
100
AcDbEntity
  8
Thru-cut
 62
     5
420
      255
370
     5
100
AcDbLine
 10
479.7363919710468
 20
-4.762499999999999
 30
0.0
 11
456.8886080289532
 21
-4.762499999999999
 31
0.0
  0
LINE
  5
C8
330
1F
100
AcDbEntity
  8
Thru-cut
 62
     5
420
      255
370
     5
100
AcDbLine
 10
456.8886080289532
 20
-4.762499999999999
 30
0.0
 11
455.6125
 21
0.0
 31
0.0
  0
LINE
  5
C9
330
1F
100
AcDbEntity
  8
Perf-cut|000~999-090
 62
   151
420
 11452415
370
    25
100
AcDbLine
 10
523.875
 20
0.0
 30
0.0
 11
523.875
 21
49.2125
 31
0.0
  0
LINE
  5
CA
330
1F
100
AcDbEntity
  8
Thru-cut
 62
     5
420
      255
370
     5
100
AcDbLine
 10
612.775
 20
49.2125
 30
0.0
 11
612.775
 21
0.0
 31
0.0
  0
LINE
  5
CB
330
1F
100
AcDbEntity
  8
Thru-cut
 62
     5
420
      255
370
     5
100
AcDbLine
 10
612.775
 20
0.0
 30
0.0
 11
481.0125
 21
0.0
 31
0.0
  0
LINE
  5
CC
330
1F
100
AcDbEntity
  8
Thru-cut
 62
     5
420
      255
370
     5
100
AcDbLine
 10
-23.8125
 20
511.175
 30
0.0
 11
-23.8125
 21
460.375
 31
0.0
  0
LINE
  5
CD
330
1F
100
AcDbEntity
  8
Thru-cut
 62
     5
420
      255
370
     5
100
AcDbLine
 10
-28.575
 20
459.0988919710467
 30
0.0
 11
-28.57499999999999
 21
436.2511080289532
 31
0.0
  0
LINE
  5
CE
330
1F
100
AcDbEntity
  8
Thru-cut
 62
     5
420
      255
370
     5
100
AcDbLine
 10
-23.8125
 20
327.025
 30
0.0
 11
-23.8125
 21
377.825
 31
0.0
  0
LINE
  5
CF
330
1F
100
AcDbEntity
  8
Thru-cut
 62
     5
420
      255
370
     5
100
AcDbLine
 10
-23.8125
 20
301.625
 30
0.0
 11
-28.575
 21
302.9011080289532
 31
0.0
  0
LINE
  5
D0
330
1F
100
AcDbEntity
  8
Thru-cut
 62
     5
420
      255
370
     5
100
AcDbLine
 10
-23.8125
 20
193.675
 30
0.0
 11
-23.8125
 21
244.475
 31
0.0
  0
LINE
  5
D1
330
1F
100
AcDbEntity
  8
Thru-cut
 62
     5
420
      255
370
     5
100
AcDbLine
 10
-23.8125
 20
327.025
 30
0.0
 11
-28.575
 21
325.7488919710467
 31
0.0
  0
LINE
  5
D2
330
1F
100
AcDbEntity
  8
Thru-cut
 62
     5
420
      255
370
     5
100
AcDbLine
 10
-28.575
 20
302.9011080289532
 30
0.0
 11
-28.575
 21
325.7488919710467
 31
0.0
  0
LINE
  5
D3
330
1F
100
AcDbEntity
  8
Thru-cut
 62
     5
420
      255
370
     5
100
AcDbLine
 10
-28.575
 20
169.5511080289532
 30
0.0
 11
-28.575
 21
192.3988919710467
 31
0.0
  0
LINE
  5
D4
330
1F
100
AcDbEntity
  8
Thru-cut
 62
     5
420
      255
370
     5
100
AcDbLine
 10
-23.8125
 20
193.675
 30
0.0
 11
-28.575
 21
192.3988919710467
 31
0.0
  0
LINE
  5
D5
330
1F
100
AcDbEntity
  8
Thru-cut
 62
     5
420
      255
370
     5
100
AcDbLine
 10
-23.8125
 20
117.475
 30
0.0
 11
-23.8125
 21
168.275
 31
0.0
  0
LINE
  5
D6
330
1F
100
AcDbEntity
  8
Thru-cut
 62
     5
420
      255
370
     5
100
AcDbLine
 10
-23.8125
 20
168.275
 30
0.0
 11
-28.575
 21
169.5511080289532
 31
0.0
  0
LINE
  5
D7
330
1F
100
AcDbEntity
  8
Thru-cut
 62
     5
420
      255
370
     5
100
AcDbLine
 10
-23.8125
 20
250.825
 30
0.0
 11
-23.8125
 21
301.625
 31
0.0
  0
LINE
  5
D8
330
1F
100
AcDbEntity
  8
Thru-cut
 62
     5
420
      255
370
     5
100
AcDbLine
 10
-23.8125
 20
434.975
 30
0.0
 11
-23.8125
 21
384.175
 31
0.0
  0
LINE
  5
D9
330
1F
100
AcDbEntity
  8
Thru-cut
 62
     5
420
      255
370
     5
100
AcDbLine
 10
157.1625
 20
0.0
 30
0.0
 11
195.2625
 21
0.0
 31
0.0
  0
LINE
  5
DA
330
1F
100
AcDbEntity
  8
Thru-cut
 62
     5
420
      255
370
     5
100
AcDbLine
 10
157.1625
 20
0.0
 30
0.0
 11
155.8863919710467
 21
-4.762499999999999
 31
0.0
  0
LINE
  5
DB
330
1F
100
AcDbEntity
  8
Thru-cut
 62
     5
420
      255
370
     5
100
AcDbLine
 10
347.6625
 20
0.0
 30
0.0
 11
348.9386080289532
 21
-4.762499999999999
 31
0.0
  0
LINE
  5
DC
330
1F
100
AcDbEntity
  8
Thru-cut
 62
     5
420
      255
370
     5
100
AcDbLine
 10
303.2125
 20
50.8
 30
0.0
 11
303.2125
 21
0.0
 31
0.0
  0
LINE
  5
DD
330
1F
100
AcDbEntity
  8
Thru-cut
 62
     5
420
      255
370
     5
100
AcDbLine
 10
348.9386080289532
 20
-4.762499999999999
 30
0.0
 11
371.7863919710468
 21
-4.762499999999999
 31
0.0
  0
LINE
  5
DE
330
1F
100
AcDbEntity
  8
Thru-cut
 62
     5
420
      255
370
     5
100
AcDbLine
 10
240.9886080289532
 20
-4.762499999999999
 30
0.0
 11
263.8363919710466
 21
-4.762499999999999
 31
0.0
  0
LINE
  5
DF
330
1F
100
AcDbEntity
  8
Thru-cut
 62
     5
420
      255
370
     5
100
AcDbLine
 10
968.4374999999999
 20
0.0
 30
0.0
 11
917.6374999999999
 21
0.0
 31
0.0
  0
LINE
  5
E0
330
1F
100
AcDbEntity
  8
Crease
 62
     3
420
    65280
370
     5
100
AcDbLine
 10
968.4374999999999
 20
0.0
 30
0.0
 11
968.4374999999999
 21
0.0
 31
0.0
  0
LINE
  5
E1
330
1F
100
AcDbEntity
  8
Perf-cut|000~999-090
 62
   151
420
 11452415
370
    25
100
AcDbLine
 10
1189.162500000003
 20
0.0
 30
0.0
 11
1189.162500000003
 21
0.0
 31
0.0
  0
LINE
  5
E2
330
1F
100
AcDbEntity
  8
Crease
 62
     3
420
    65280
370
     5
100
AcDbLine
 10
968.4374999999999
 20
0.0
 30
0.0
 11
968.4374999999999
 21
0.0
 31
0.0
  0
LINE
  5
E3
330
1F
100
AcDbEntity
  8
Crease
 62
     3
420
    65280
370
     5
100
AcDbLine
 10
968.4374999999999
 20
0.0
 30
0.0
 11
968.4374999999999
 21
0.0
 31
0.0
  0
LINE
  5
E4
330
1F
100
AcDbEntity
  8
Crease
 62
     3
420
    65280
370
     5
100
AcDbLine
 10
968.4374999999999
 20
0.0
 30
0.0
 11
968.4374999999999
 21
0.0
 31
0.0
  0
LINE
  5
E5
330
1F
100
AcDbEntity
  8
Thru-cut
 62
     5
420
      255
370
     5
100
AcDbLine
 10
1189.162500000003
 20
511.175
 30
0.0
 11
1139.950000000003
 21
511.175
 31
0.0
  0
LINE
  5
E6
330
1F
100
AcDbEntity
  8
Thru-cut
 62
     5
420
      255
370
     5
100
AcDbLine
 10
1033.587500000003
 20
511.175
 30
0.0
 11
1132.012500000003
 21
511.175
 31
0.0
  0
LINE
  5
E7
330
1F
100
AcDbEntity
  8
Thru-cut
 62
     5
420
      255
370
     5
100
AcDbLine
 10
812.8625
 20
479.425
 30
0.0
 11
812.8625
 21
436.5625
 31
0.0
  0
LINE
  5
E8
330
1F
100
AcDbEntity
  8
Thru-cut
 62
     5
420
      255
370
     5
100
AcDbLine
 10
755.7125
 20
0.0
 30
0.0
 11
755.7125
 21
479.425
 31
0.0
  0
LINE
  5
E9
330
1F
100
AcDbEntity
  8
Thru-cut
 62
     5
420
      255
370
     5
100
AcDbLine
 10
812.8625
 20
479.425
 30
0.0
 11
912.8749999999999
 21
479.425
 31
0.0
  0
LINE
  5
EA
330
1F
100
AcDbEntity
  8
Crease
 62
     3
420
    65280
370
     5
100
AcDbLine
 10
912.8749999999999
 20
309.5625
 30
0.0
 11
912.8749999999999
 21
309.5625
 31
0.0
  0
LINE
  5
EB
330
1F
100
AcDbEntity
  8
Crease
 62
     3
420
    65280
370
     5
100
AcDbLine
 10
912.8749999999999
 20
309.5625
 30
0.0
 11
912.8749999999999
 21
309.5625
 31
0.0
  0
LINE
  5
EC
330
1F
100
AcDbEntity
  8
Thru-cut
 62
     5
420
      255
370
     5
100
AcDbLine
 10
1025.650000000003
 20
468.3125
 30
0.0
 11
1033.587500000003
 21
468.3125
 31
0.0
  0
LINE
  5
ED
330
1F
100
AcDbEntity
  8
Thru-cut
 62
     5
420
      255
370
     5
100
AcDbLine
 10
917.6374999999999
 20
479.425
 30
0.0
 11
917.6374999999999
 21
436.5625
 31
0.0
  0
LINE
  5
EE
330
1F
100
AcDbEntity
  8
Thru-cut
 62
     5
420
      255
370
     5
100
AcDbLine
 10
706.5
 20
479.425
 30
0.0
 11
706.5
 21
436.5625
 31
0.0
  0
LINE
  5
EF
330
1F
100
AcDbEntity
  8
Thru-cut
 62
     5
420
      255
370
     5
100
AcDbLine
 10
804.925
 20
479.425
 30
0.0
 11
804.925
 21
436.5625
 31
0.0
  0
LINE
  5
F0
330
1F
100
AcDbEntity
  8
Thru-cut
 62
     5
420
      255
370
     5
100
AcDbLine
 10
976.4375000000028
 20
511.175
 30
0.0
 11
976.4375000000028
 21
366.7125
 31
0.0
  0
LINE
  5
F1
330
1F
100
AcDbEntity
  8
Crease
 62
     3
420
    65280
370
     5
100
AcDbLine
 10
700.15
 20
309.5625
 30
0.0
 11
700.15
 21
309.5625
 31
0.0
  0
LINE
  5
F2
330
1F
100
AcDbEntity
  8
Crease
 62
     3
420
    65280
370
     5
100
AcDbLine
 10
1189.162500000003
 20
0.0
 30
0.0
 11
1189.162500000003
 21
0.0
 31
0.0
  0
LINE
  5
F3
330
1F
100
AcDbEntity
  8
Crease
 62
     3
420
    65280
370
     5
100
AcDbLine
 10
968.4374999999999
 20
0.0
 30
0.0
 11
968.4374999999999
 21
0.0
 31
0.0
  0
LINE
  5
F4
330
1F
100
AcDbEntity
  8
Crease
 62
     3
420
    65280
370
     5
100
AcDbLine
 10
1189.162500000003
 20
0.0
 30
0.0
 11
1189.162500000003
 21
0.0
 31
0.0
  0
LINE
  5
F5
330
1F
100
AcDbEntity
  8
Crease
 62
     3
420
    65280
370
     5
100
AcDbLine
 10
1189.162500000003
 20
0.0
 30
0.0
 11
1189.162500000003
 21
0.0
 31
0.0
  0
LINE
  5
F6
330
1F
100
AcDbEntity
  8
Crease
 62
     3
420
    65280
370
     5
100
AcDbLine
 10
1189.162500000003
 20
0.0
 30
0.0
 11
1189.162500000003
 21
0.0
 31
0.0
  0
LINE
  5
F7
330
1F
100
AcDbEntity
  8
Crease
 62
     3
420
    65280
370
     5
100
AcDbLine
 10
1189.162500000003
 20
0.0
 30
0.0
 11
1189.162500000003
 21
0.0
 31
0.0
  0
LINE
  5
F8
330
1F
100
AcDbEntity
  8
Crease
 62
     3
420
    65280
370
     5
100
AcDbLine
 10
1189.162500000003
 20
0.0
 30
0.0
 11
1189.162500000003
 21
0.0
 31
0.0
  0
LINE
  5
F9
330
1F
100
AcDbEntity
  8
Crease
 62
     3
420
    65280
370
     5
100
AcDbLine
 10
968.4374999999999
 20
0.0
 30
0.0
 11
968.4374999999999
 21
0.0
 31
0.0
  0
LINE
  5
FA
330
1F
100
AcDbEntity
  8
Crease
 62
     3
420
    65280
370
     5
100
AcDbLine
 10
968.4374999999999
 20
0.0
 30
0.0
 11
968.4374999999999
 21
0.0
 31
0.0
  0
LINE
  5
FB
330
1F
100
AcDbEntity
  8
Thru-cut
 62
     5
420
      255
370
     5
100
AcDbLine
 10
649.3499999999999
 20
0.0
 30
0.0
 11
698.5625
 21
0.0
 31
0.0
  0
LINE
  5
FC
330
1F
100
AcDbEntity
  8
Thru-cut
 62
     5
420
      255
370
     5
100
AcDbLine
 10
-28.57499999999999
 20
436.2511080289532
 30
0.0
 11
-23.8125
 21
434.975
 31
0.0
  0
LINE
  5
FD
330
1F
100
AcDbEntity
  8
Thru-cut
 62
     5
420
      255
370
     5
100
AcDbLine
 10
-28.575
 20
459.0988919710467
 30
0.0
 11
-23.8125
 21
460.375
 31
0.0
  0
LINE
  5
FE
330
1F
100
AcDbEntity
  8
Thru-cut
 62
     5
420
      255
370
     5
100
AcDbLine
 10
1001.837500000003
 20
360.3625
 30
0.0
 11
1001.837500000003
 21
366.7125
 31
0.0
  0
LINE
  5
FF
330
1F
100
AcDbEntity
  8
Thru-cut
 62
     5
420
      255
370
     5
100
AcDbLine
 10
1163.762500000003
 20
366.7125
 30
0.0
 11
1163.762500000003
 21
360.3625
 31
0.0
  0
LINE
  5
100
330
1F
100
AcDbEntity
  8
Thru-cut
 62
     5
420
      255
370
     5
100
AcDbLine
 10
1057.400000000003
 20
366.7125
 30
0.0
 11
1057.400000000003
 21
360.3625
 31
0.0
  0
LINE
  5
101
330
1F
100
AcDbEntity
  8
Thru-cut
 62
     5
420
      255
370
     5
100
AcDbLine
 10
1057.400000000003
 20
366.7125
 30
0.0
 11
1108.200000000003
 21
366.7125
 31
0.0
  0
LINE
  5
102
330
1F
100
AcDbEntity
  8
Thru-cut
 62
     5
420
      255
370
     5
100
AcDbLine
 10
1057.400000000003
 20
360.3625
 30
0.0
 11
1108.200000000003
 21
360.3625
 31
0.0
  0
LINE
  5
103
330
1F
100
AcDbEntity
  8
Thru-cut
 62
     5
420
      255
370
     5
100
AcDbLine
 10
1163.762500000003
 20
360.3625
 30
0.0
 11
1189.162500000003
 21
360.3625
 31
0.0
  0
LINE
  5
104
330
1F
100
AcDbEntity
  8
Thru-cut
 62
     5
420
      255
370
     5
100
AcDbLine
 10
1163.762500000003
 20
366.7125
 30
0.0
 11
1189.162500000003
 21
366.7125
 31
0.0
  0
LINE
  5
105
330
1F
100
AcDbEntity
  8
Thru-cut
 62
     5
420
      255
370
     5
100
AcDbLine
 10
1108.200000000003
 20
360.3625
 30
0.0
 11
1108.200000000003
 21
366.7125
 31
0.0
  0
LINE
  5
106
330
1F
100
AcDbEntity
  8
Thru-cut
 62
     5
420
      255
370
     5
100
AcDbLine
 10
1163.762500000003
 20
258.7625
 30
0.0
 11
1189.162500000003
 21
258.7625
 31
0.0
  0
LINE
  5
107
330
1F
100
AcDbEntity
  8
Thru-cut
 62
     5
420
      255
370
     5
100
AcDbLine
 10
1108.200000000003
 20
258.7625
 30
0.0
 11
1057.400000000003
 21
258.7625
 31
0.0
  0
LINE
  5
108
330
1F
100
AcDbEntity
  8
Thru-cut
 62
     5
420
      255
370
     5
100
AcDbLine
 10
1189.162500000003
 20
258.7625
 30
0.0
 11
1189.162500000003
 21
360.3625
 31
0.0
  0
LINE
  5
109
330
1F
100
AcDbEntity
  8
Thru-cut
 62
     5
420
      255
370
     5
100
AcDbLine
 10
1163.762500000003
 20
150.8125
 30
0.0
 11
1189.162500000003
 21
150.8125
 31
0.0
  0
LINE
  5
10A
330
1F
100
AcDbEntity
  8
Thru-cut
 62
     5
420
      255
370
     5
100
AcDbLine
 10
1163.762500000003
 20
144.4625
 30
0.0
 11
1189.162500000003
 21
144.4625
 31
0.0
  0
LINE
  5
10B
330
1F
100
AcDbEntity
  8
Thru-cut
 62
     5
420
      255
370
     5
100
AcDbLine
 10
1132.012500000003
 20
511.175
 30
0.0
 11
1132.012500000003
 21
468.3125
 31
0.0
  0
LINE
  5
10C
330
1F
100
AcDbEntity
  8
Perf-cut|000~999-090
 62
   151
420
 11452415
370
    25
100
AcDbLine
 10
1132.012500000003
 20
473.075
 30
0.0
 11
1082.800000000003
 21
473.075
 31
0.0
  0
LINE
  5
10D
330
1F
100
AcDbEntity
  8
Perf-cut|000~999-090
 62
   151
420
 11452415
370
    25
100
AcDbLine
 10
1139.950000000003
 20
473.075
 30
0.0
 11
1189.162500000003
 21
473.075
 31
0.0
  0
LINE
  5
10E
330
1F
100
AcDbEntity
  8
Perf-cut|000~999-090
 62
   151
420
 11452415
370
    25
100
AcDbLine
 10
1033.587500000003
 20
473.075
 30
0.0
 11
1082.800000000003
 21
473.075
 31
0.0
  0
LINE
  5
10F
330
1F
100
AcDbEntity
  8
Thru-cut
 62
     5
420
      255
370
     5
100
AcDbLine
 10
1132.012500000003
 20
468.3125
 30
0.0
 11
1139.950000000003
 21
468.3125
 31
0.0
  0
LINE
  5
110
330
1F
100
AcDbEntity
  8
Thru-cut
 62
     5
420
      255
370
     5
100
AcDbLine
 10
706.5
 20
479.425
 30
0.0
 11
804.925
 21
479.425
 31
0.0
  0
LINE
  5
111
330
1F
100
AcDbEntity
  8
Thru-cut
 62
     5
420
      255
370
     5
100
AcDbLine
 10
804.925
 20
436.5625
 30
0.0
 11
812.8625
 21
436.5625
 31
0.0
  0
LINE
  5
112
330
1F
100
AcDbEntity
  8
Thru-cut
 62
     5
420
      255
370
     5
100
AcDbLine
 10
1082.800000000003
 20
366.7125
 30
0.0
 11
1082.800000000003
 21
511.175
 31
0.0
  0
LINE
  5
113
330
1F
100
AcDbEntity
  8
Thru-cut
 62
     5
420
      255
370
     5
100
AcDbLine
 10
1189.162500000003
 20
366.7125
 30
0.0
 11
1189.162500000003
 21
511.175
 31
0.0
  0
LINE
  5
114
330
1F
100
AcDbEntity
  8
Thru-cut
 62
     5
420
      255
370
     5
100
AcDbLine
 10
1025.650000000003
 20
511.175
 30
0.0
 11
1025.650000000003
 21
468.3125
 31
0.0
  0
LINE
  5
115
330
1F
100
AcDbEntity
  8
Thru-cut
 62
     5
420
      255
370
     5
100
AcDbLine
 10
1033.587500000003
 20
511.175
 30
0.0
 11
1033.587500000003
 21
468.3125
 31
0.0
  0
LINE
  5
116
330
1F
100
AcDbEntity
  8
Thru-cut
 62
     5
420
      255
370
     5
100
AcDbLine
 10
1139.950000000003
 20
511.175
 30
0.0
 11
1139.950000000003
 21
468.3125
 31
0.0
  0
LINE
  5
117
330
1F
100
AcDbEntity
  8
Perf-cut|000~999-090
 62
   151
420
 11452415
370
    25
100
AcDbLine
 10
1139.950000000003
 20
38.09999999999999
 30
0.0
 11
1189.162500000003
 21
38.09999999999999
 31
0.0
  0
LINE
  5
118
330
1F
100
AcDbEntity
  8
Thru-cut
 62
     5
420
      255
370
     5
100
AcDbLine
 10
781.1125
 20
303.2125
 30
0.0
 11
836.675
 21
303.2125
 31
0.0
  0
LINE
  5
119
330
1F
100
AcDbEntity
  8
Thru-cut
 62
     5
420
      255
370
     5
100
AcDbLine
 10
836.675
 20
309.5625
 30
0.0
 11
781.1125
 21
309.5625
 31
0.0
  0
LINE
  5
11A
330
1F
100
AcDbEntity
  8
Thru-cut
 62
     5
420
      255
370
     5
100
AcDbLine
 10
730.3125
 20
309.5625
 30
0.0
 11
730.3125
 21
303.2125
 31
0.0
  0
LINE
  5
11B
330
1F
100
AcDbEntity
  8
Crease
 62
     3
420
    65280
370
     5
100
AcDbLine
 10
912.8749999999999
 20
309.5625
 30
0.0
 11
912.8749999999999
 21
309.5625
 31
0.0
  0
LINE
  5
11C
330
1F
100
AcDbEntity
  8
Crease
 62
     3
420
    65280
370
     5
100
AcDbLine
 10
912.8749999999999
 20
309.5625
 30
0.0
 11
912.8749999999999
 21
309.5625
 31
0.0
  0
LINE
  5
11D
330
1F
100
AcDbEntity
  8
Thru-cut
 62
     5
420
      255
370
     5
100
AcDbLine
 10
887.4749999999999
 20
303.2125
 30
0.0
 11
887.4749999999999
 21
309.5625
 31
0.0
  0
LINE
  5
11E
330
1F
100
AcDbEntity
  8
Thru-cut
 62
     5
420
      255
370
     5
100
AcDbLine
 10
943.0374999999999
 20
309.5625
 30
0.0
 11
887.4749999999999
 21
309.5625
 31
0.0
  0
LINE
  5
11F
330
1F
100
AcDbEntity
  8
Thru-cut
 62
     5
420
      255
370
     5
100
AcDbLine
 10
887.4749999999999
 20
303.2125
 30
0.0
 11
943.0374999999999
 21
303.2125
 31
0.0
  0
LINE
  5
120
330
1F
100
AcDbEntity
  8
Thru-cut
 62
     5
420
      255
370
     5
100
AcDbLine
 10
976.4375000000028
 20
360.3625
 30
0.0
 11
976.4375000000028
 21
258.7625
 31
0.0
  0
LINE
  5
121
330
1F
100
AcDbEntity
  8
Thru-cut
 62
     5
420
      255
370
     5
100
AcDbLine
 10
781.1125
 20
303.2125
 30
0.0
 11
781.1125
 21
309.5625
 31
0.0
  0
LINE
  5
122
330
1F
100
AcDbEntity
  8
Crease
 62
     3
420
    65280
370
     5
100
AcDbLine
 10
700.15
 20
309.5625
 30
0.0
 11
700.15
 21
309.5625
 31
0.0
  0
LINE
  5
123
330
1F
100
AcDbEntity
  8
Thru-cut
 62
     5
420
      255
370
     5
100
AcDbLine
 10
943.0374999999999
 20
309.5625
 30
0.0
 11
943.0374999999999
 21
303.2125
 31
0.0
  0
LINE
  5
124
330
1F
100
AcDbEntity
  8
Thru-cut
 62
     5
420
      255
370
     5
100
AcDbLine
 10
912.8749999999999
 20
436.5625
 30
0.0
 11
917.6374999999999
 21
436.5625
 31
0.0
  0
LINE
  5
125
330
1F
100
AcDbEntity
  8
Thru-cut
 62
     5
420
      255
370
     5
100
AcDbLine
 10
698.5625
 20
436.5625
 30
0.0
 11
706.5
 21
436.5625
 31
0.0
  0
LINE
  5
126
330
1F
100
AcDbEntity
  8
Thru-cut
 62
     5
420
      255
370
     5
100
AcDbLine
 10
698.5625
 20
479.425
 30
0.0
 11
698.5625
 21
436.5625
 31
0.0
  0
LINE
  5
127
330
1F
100
AcDbEntity
  8
Perf-cut|000~999-090
 62
   151
420
 11452415
370
    25
100
AcDbLine
 10
804.925
 20
441.325
 30
0.0
 11
755.7125
 21
441.325
 31
0.0
  0
LINE
  5
128
330
1F
100
AcDbEntity
  8
Perf-cut|000~999-090
 62
   151
420
 11452415
370
    25
100
AcDbLine
 10
812.8625
 20
441.325
 30
0.0
 11
862.0749999999999
 21
441.325
 31
0.0
  0
LINE
  5
129
330
1F
100
AcDbEntity
  8
Perf-cut|000~999-090
 62
   151
420
 11452415
370
    25
100
AcDbLine
 10
706.5
 20
441.325
 30
0.0
 11
755.7125
 21
441.325
 31
0.0
  0
LINE
  5
12A
330
1F
100
AcDbEntity
  8
Perf-cut|000~999-090
 62
   151
420
 11452415
370
    25
100
AcDbLine
 10
912.8749999999999
 20
441.325
 30
0.0
 11
862.0749999999999
 21
441.325
 31
0.0
  0
LINE
  5
12B
330
1F
100
AcDbEntity
  8
Thru-cut
 62
     5
420
      255
370
     5
100
AcDbLine
 10
912.8749999999999
 20
479.425
 30
0.0
 11
912.8749999999999
 21
436.5625
 31
0.0
  0
LINE
  5
12C
330
1F
100
AcDbEntity
  8
Crease
 62
     3
420
    65280
370
     5
100
AcDbLine
 10
700.15
 20
309.5625
 30
0.0
 11
700.15
 21
309.5625
 31
0.0
  0
LINE
  5
12D
330
1F
100
AcDbEntity
  8
Crease
 62
     3
420
    65280
370
     5
100
AcDbLine
 10
806.5124999999999
 20
309.5625
 30
0.0
 11
806.5124999999999
 21
309.5625
 31
0.0
  0
LINE
  5
12E
330
1F
100
AcDbEntity
  8
Crease
 62
     3
420
    65280
370
     5
100
AcDbLine
 10
806.5124999999999
 20
309.5625
 30
0.0
 11
806.5124999999999
 21
309.5625
 31
0.0
  0
LINE
  5
12F
330
1F
100
AcDbEntity
  8
Thru-cut
 62
     5
420
      255
370
     5
100
AcDbLine
 10
1082.800000000003
 20
258.7625
 30
0.0
 11
1082.800000000003
 21
360.3625
 31
0.0
  0
LINE
  5
130
330
1F
100
AcDbEntity
  8
Thru-cut
 62
     5
420
      255
370
     5
100
AcDbLine
 10
943.0374999999999
 20
176.2125
 30
0.0
 11
887.4749999999999
 21
176.2125
 31
0.0
  0
LINE
  5
131
330
1F
100
AcDbEntity
  8
Thru-cut
 62
     5
420
      255
370
     5
100
AcDbLine
 10
912.8749999999999
 20
42.8625
 30
0.0
 11
917.6374999999999
 21
42.8625
 31
0.0
  0
LINE
  5
132
330
1F
100
AcDbEntity
  8
Thru-cut
 62
     5
420
      255
370
     5
100
AcDbLine
 10
579.4692500000026
 20
384.175
 30
0.0
 11
636.5875
 21
384.175
 31
0.0
  0
LINE
  5
133
330
1F
100
AcDbEntity
  8
Crease
 62
     3
420
    65280
370
     5
100
AcDbLine
 10
417.5125
 20
577.85
 30
0.0
 11
417.5125
 21
577.85
 31
0.0
  0
LINE
  5
134
330
1F
100
AcDbEntity
  8
Thru-cut
 62
     5
420
      255
370
     5
100
AcDbLine
 10
730.3125
 20
176.2125
 30
0.0
 11
730.3125
 21
169.8625
 31
0.0
  0
LINE
  5
135
330
1F
100
AcDbEntity
  8
Crease
 62
     3
420
    65280
370
     5
100
AcDbLine
 10
912.8749999999999
 20
42.8625
 30
0.0
 11
912.8749999999999
 21
169.8625
 31
0.0
  0
LINE
  5
136
330
1F
100
AcDbEntity
  8
Crease
 62
     3
420
    65280
370
     5
100
AcDbLine
 10
917.6374999999999
 20
169.8625
 30
0.0
 11
917.6374999999999
 21
42.8625
 31
0.0
  0
LINE
  5
137
330
1F
100
AcDbEntity
  8
Crease
 62
     3
420
    65280
370
     5
100
AcDbLine
 10
811.275
 20
169.8625
 30
0.0
 11
811.275
 21
42.8625
 31
0.0
  0
LINE
  5
138
330
1F
100
AcDbEntity
  8
Thru-cut
 62
     5
420
      255
370
     5
100
AcDbLine
 10
519.1125
 20
460.375
 30
0.0
 11
527.05
 21
460.375
 31
0.0
  0
LINE
  5
139
330
1F
100
AcDbEntity
  8
Thru-cut
 62
     5
420
      255
370
     5
100
AcDbLine
 10
519.1125
 20
434.975
 30
0.0
 11
519.1125
 21
460.375
 31
0.0
  0
LINE
  5
13A
330
1F
100
AcDbEntity
  8
Thru-cut
 62
     5
420
      255
370
     5
100
AcDbLine
 10
527.05
 20
434.975
 30
0.0
 11
519.1125
 21
434.975
 31
0.0
  0
LINE
  5
13B
330
1F
100
AcDbEntity
  8
Thru-cut
 62
     5
420
      255
370
     5
100
AcDbLine
 10
836.675
 20
176.2125
 30
0.0
 11
781.1125
 21
176.2125
 31
0.0
  0
LINE
  5
13C
330
1F
100
AcDbEntity
  8
Thru-cut
 62
     5
420
      255
370
     5
100
AcDbLine
 10
836.675
 20
176.2125
 30
0.0
 11
836.675
 21
169.8625
 31
0.0
  0
LINE
  5
13D
330
1F
100
AcDbEntity
  8
Crease
 62
     3
420
    65280
370
     5
100
AcDbLine
 10
806.5124999999999
 20
309.5625
 30
0.0
 11
806.5124999999999
 21
309.5625
 31
0.0
  0
LINE
  5
13E
330
1F
100
AcDbEntity
  8
Crease
 62
     3
420
    65280
370
     5
100
AcDbLine
 10
806.5124999999999
 20
309.5625
 30
0.0
 11
806.5124999999999
 21
309.5625
 31
0.0
  0
LINE
  5
13F
330
1F
100
AcDbEntity
  8
Perf-cut|000~999-090
 62
   151
420
 11452415
370
    25
100
AcDbLine
 10
1033.587500000003
 20
38.09999999999999
 30
0.0
 11
1082.800000000003
 21
38.09999999999999
 31
0.0
  0
LINE
  5
140
330
1F
100
AcDbEntity
  8
Perf-cut|000~999-090
 62
   151
420
 11452415
370
    25
100
AcDbLine
 10
1132.012500000003
 20
38.09999999999999
 30
0.0
 11
1082.800000000003
 21
38.09999999999999
 31
0.0
  0
LINE
  5
141
330
1F
100
AcDbEntity
  8
Thru-cut
 62
     5
420
      255
370
     5
100
AcDbLine
 10
1132.012500000003
 20
42.8625
 30
0.0
 11
1139.950000000003
 21
42.8625
 31
0.0
  0
LINE
  5
142
330
1F
100
AcDbEntity
  8
Thru-cut
 62
     5
420
      255
370
     5
100
AcDbLine
 10
1057.400000000003
 20
150.8125
 30
0.0
 11
1057.400000000003
 21
144.4625
 31
0.0
  0
LINE
  5
143
330
1F
100
AcDbEntity
  8
Thru-cut
 62
     5
420
      255
370
     5
100
AcDbLine
 10
1108.200000000003
 20
150.8125
 30
0.0
 11
1057.400000000003
 21
150.8125
 31
0.0
  0
LINE
  5
144
330
1F
100
AcDbEntity
  8
Thru-cut
 62
     5
420
      255
370
     5
100
AcDbLine
 10
1108.200000000003
 20
144.4625
 30
0.0
 11
1057.400000000003
 21
144.4625
 31
0.0
  0
LINE
  5
145
330
1F
100
AcDbEntity
  8
Thru-cut
 62
     5
420
      255
370
     5
100
AcDbLine
 10
1163.762500000003
 20
150.8125
 30
0.0
 11
1163.762500000003
 21
144.4625
 31
0.0
  0
LINE
  5
146
330
1F
100
AcDbEntity
  8
Thru-cut
 62
     5
420
      255
370
     5
100
AcDbLine
 10
1108.200000000003
 20
144.4625
 30
0.0
 11
1108.200000000003
 21
150.8125
 31
0.0
  0
LINE
  5
147
330
1F
100
AcDbEntity
  8
Thru-cut
 62
     5
420
      255
370
     5
100
AcDbLine
 10
1025.650000000003
 20
42.8625
 30
0.0
 11
1033.587500000003
 21
42.8625
 31
0.0
  0
LINE
  5
148
330
1F
100
AcDbEntity
  8
Thru-cut
 62
     5
420
      255
370
     5
100
AcDbLine
 10
1001.837500000003
 20
144.4625
 30
0.0
 11
1001.837500000003
 21
150.8125
 31
0.0
  0
LINE
  5
149
330
1F
100
AcDbEntity
  8
Thru-cut
 62
     5
420
      255
370
     5
100
AcDbLine
 10
481.0125
 20
519.1125
 30
0.0
 11
455.6125
 21
519.1125
 31
0.0
  0
LINE
  5
14A
330
1F
100
AcDbEntity
  8
Thru-cut
 62
     5
420
      255
370
     5
100
AcDbLine
 10
455.6125
 20
519.1125
 30
0.0
 11
455.6125
 21
511.175
 31
0.0
  0
LINE
  5
14B
330
1F
100
AcDbEntity
  8
Thru-cut
 62
     5
420
      255
370
     5
100
AcDbLine
 10
455.6125
 20
511.175
 30
0.0
 11
481.0125
 21
511.175
 31
0.0
  0
LINE
  5
14C
330
1F
100
AcDbEntity
  8
Thru-cut
 62
     5
420
      255
370
     5
100
AcDbLine
 10
411.1625
 20
577.85
 30
0.0
 11
417.5125
 21
577.85
 31
0.0
  0
LINE
  5
14D
330
1F
100
AcDbEntity
  8
Thru-cut
 62
     5
420
      255
370
     5
100
AcDbLine
 10
411.1625
 20
577.85
 30
0.0
 11
411.1625
 21
628.65
 31
0.0
  0
LINE
  5
14E
330
1F
100
AcDbEntity
  8
Crease
 62
     3
420
    65280
370
     5
100
AcDbLine
 10
527.05
 20
460.375
 30
0.0
 11
527.05
 21
517.525
 31
0.0
  0
LINE
  5
14F
330
1F
100
AcDbEntity
  8
Crease
 62
     3
420
    65280
370
     5
100
AcDbLine
 10
527.05
 20
517.525
 30
0.0
 11
577.85
 21
517.525
 31
0.0
  0
LINE
  5
150
330
1F
100
AcDbEntity
  8
Thru-cut
 62
     5
420
      255
370
     5
100
AcDbLine
 10
636.5875
 20
511.175
 30
0.0
 11
636.5875
 21
460.375
 31
0.0
  0
LINE
  5
151
330
1F
100
AcDbEntity
  8
Thru-cut
 62
     5
420
      255
370
     5
100
AcDbLine
 10
641.3499999999999
 20
459.0988919710467
 30
0.0
 11
636.5875
 21
460.375
 31
0.0
  0
LINE
  5
152
330
1F
100
AcDbEntity
  8
Thru-cut
 62
     5
420
      255
370
     5
100
AcDbLine
 10
641.3499999999999
 20
436.2511080289532
 30
0.0
 11
636.5875
 21
434.975
 31
0.0
  0
LINE
  5
153
330
1F
100
AcDbEntity
  8
Thru-cut
 62
     5
420
      255
370
     5
100
AcDbLine
 10
641.3499999999999
 20
459.0988919710467
 30
0.0
 11
641.3499999999999
 21
436.2511080289532
 31
0.0
  0
LINE
  5
154
330
1F
100
AcDbEntity
  8
Thru-cut
 62
     5
420
      255
370
     5
100
AcDbLine
 10
528.6374999999999
 20
519.1125
 30
0.0
 11
528.6374999999999
 21
571.5
 31
0.0
  0
LINE
  5
155
330
1F
100
AcDbEntity
  8
Thru-cut
 62
     5
420
      255
370
     5
100
AcDbLine
 10
585.7875
 20
511.175
 30
0.0
 11
636.5875
 21
511.175
 31
0.0
  0
LINE
  5
156
330
1F
100
AcDbEntity
  8
Thru-cut
 62
     5
420
      255
370
     5
100
AcDbLine
 10
836.675
 20
309.5625
 30
0.0
 11
836.675
 21
303.2125
 31
0.0
  0
LINE
  5
157
330
1F
100
AcDbEntity
  8
Crease
 62
     3
420
    65280
370
     5
100
AcDbLine
 10
704.9124999999999
 20
169.8625
 30
0.0
 11
704.9124999999999
 21
42.8625
 31
0.0
  0
LINE
  5
158
330
1F
100
AcDbEntity
  8
Crease
 62
     3
420
    65280
370
     5
100
AcDbLine
 10
700.15
 20
309.5625
 30
0.0
 11
700.15
 21
309.5625
 31
0.0
  0
LINE
  5
159
330
1F
100
AcDbEntity
  8
Crease
 62
     3
420
    65280
370
     5
100
AcDbLine
 10
700.15
 20
42.8625
 30
0.0
 11
700.15
 21
169.8625
 31
0.0
  0
LINE
  5
15A
330
1F
100
AcDbEntity
  8
Thru-cut
 62
     5
420
      255
370
     5
100
AcDbLine
 10
698.5625
 20
42.8625
 30
0.0
 11
706.5
 21
42.8625
 31
0.0
  0
LINE
  5
15B
330
1F
100
AcDbEntity
  8
Perf-cut|000~999-090
 62
   151
420
 11452415
370
    25
100
AcDbLine
 10
706.5
 20
38.09999999999999
 30
0.0
 11
755.7125
 21
38.09999999999999
 31
0.0
  0
LINE
  5
15C
330
1F
100
AcDbEntity
  8
Perf-cut|000~999-090
 62
   151
420
 11452415
370
    25
100
AcDbLine
 10
912.8749999999999
 20
38.09999999999999
 30
0.0
 11
862.0749999999999
 21
38.09999999999999
 31
0.0
  0
LINE
  5
15D
330
1F
100
AcDbEntity
  8
Perf-cut|000~999-090
 62
   151
420
 11452415
370
    25
100
AcDbLine
 10
804.925
 20
38.09999999999999
 30
0.0
 11
755.7125
 21
38.09999999999999
 31
0.0
  0
LINE
  5
15E
330
1F
100
AcDbEntity
  8
Perf-cut|000~999-090
 62
   151
420
 11452415
370
    25
100
AcDbLine
 10
523.875
 20
628.65
 30
0.0
 11
523.875
 21
579.4375
 31
0.0
  0
LINE
  5
15F
330
1F
100
AcDbEntity
  8
Crease
 62
     3
420
    65280
370
     5
100
AcDbLine
 10
806.5124999999999
 20
42.8625
 30
0.0
 11
806.5124999999999
 21
169.8625
 31
0.0
  0
LINE
  5
160
330
1F
100
AcDbEntity
  8
Thru-cut
 62
     5
420
      255
370
     5
100
AcDbLine
 10
887.4749999999999
 20
169.8625
 30
0.0
 11
943.0374999999999
 21
169.8625
 31
0.0
  0
LINE
  5
161
330
1F
100
AcDbEntity
  8
Perf-cut|000~999-090
 62
   151
420
 11452415
370
    25
100
AcDbLine
 10
812.8625
 20
38.09999999999999
 30
0.0
 11
862.0749999999999
 21
38.09999999999999
 31
0.0
  0
LINE
  5
162
330
1F
100
AcDbEntity
  8
Thru-cut
 62
     5
420
      255
370
     5
100
AcDbLine
 10
201.6125
 20
628.65
 30
0.0
 11
239.7125
 21
628.65
 31
0.0
  0
LINE
  5
163
330
1F
100
AcDbEntity
  8
Thru-cut
 62
     5
420
      255
370
     5
100
AcDbLine
 10
265.1125
 20
628.65
 30
0.0
 11
263.8363919710466
 21
633.4124999999999
 31
0.0
  0
LINE
  5
164
330
1F
100
AcDbEntity
  8
Thru-cut
 62
     5
420
      255
370
     5
100
AcDbLine
 10
85.725
 20
460.375
 30
0.0
 11
85.725
 21
434.975
 31
0.0
  0
LINE
  5
165
330
1F
100
AcDbEntity
  8
Crease
 62
     3
420
    65280
370
     5
100
AcDbLine
 10
417.5125
 20
519.1125
 30
0.0
 11
417.5125
 21
519.1125
 31
0.0
  0
LINE
  5
166
330
1F
100
AcDbEntity
  8
Crease
 62
     3
420
    65280
370
     5
100
AcDbLine
 10
527.05
 20
384.175
 30
0.0
 11
527.05
 21
384.175
 31
0.0
  0
LINE
  5
167
330
1F
100
AcDbEntity
  8
Crease
 62
     3
420
    65280
370
     5
100
AcDbLine
 10
585.7875
 20
384.175
 30
0.0
 11
585.7875
 21
384.175
 31
0.0
  0
LINE
  5
168
330
1F
100
AcDbEntity
  8
Thru-cut
 62
     5
420
      255
370
     5
100
AcDbLine
 10
303.2125
 20
577.85
 30
0.0
 11
303.2125
 21
628.65
 31
0.0
  0
LINE
  5
169
330
1F
100
AcDbEntity
  8
Crease
 62
     3
420
    65280
370
     5
100
AcDbLine
 10
157.1625
 20
519.1125
 30
0.0
 11
239.7125
 21
519.1125
 31
0.0
  0
LINE
  5
16A
330
1F
100
AcDbEntity
  8
Thru-cut
 62
     5
420
      255
370
     5
100
AcDbLine
 10
157.1625
 20
628.65
 30
0.0
 11
195.2625
 21
628.65
 31
0.0
  0
LINE
  5
16B
330
1F
100
AcDbEntity
  8
Thru-cut
 62
     5
420
      255
370
     5
100
AcDbLine
 10
157.1625
 20
628.65
 30
0.0
 11
155.8863919710467
 21
633.4124999999999
 31
0.0
  0
LINE
  5
16C
330
1F
100
AcDbEntity
  8
Thru-cut
 62
     5
420
      255
370
     5
100
AcDbLine
 10
239.7125
 20
519.1125
 30
0.0
 11
239.7125
 21
511.175
 31
0.0
  0
LINE
  5
16D
330
1F
100
AcDbEntity
  8
Thru-cut
 62
     5
420
      255
370
     5
100
AcDbLine
 10
195.2625
 20
577.85
 30
0.0
 11
195.2625
 21
628.65
 31
0.0
  0
LINE
  5
16E
330
1F
100
AcDbEntity
  8
Thru-cut
 62
     5
420
      255
370
     5
100
AcDbLine
 10
157.1625
 20
511.175
 30
0.0
 11
157.1625
 21
519.1125
 31
0.0
  0
LINE
  5
16F
330
1F
100
AcDbEntity
  8
Thru-cut
 62
     5
420
      255
370
     5
100
AcDbLine
 10
804.925
 20
42.8625
 30
0.0
 11
812.8625
 21
42.8625
 31
0.0
  0
LINE
  5
170
330
1F
100
AcDbEntity
  8
Thru-cut
 62
     5
420
      255
370
     5
100
AcDbLine
 10
887.4749999999999
 20
169.8625
 30
0.0
 11
887.4749999999999
 21
176.2125
 31
0.0
  0
LINE
  5
171
330
1F
100
AcDbEntity
  8
Thru-cut
 62
     5
420
      255
370
     5
100
AcDbLine
 10
479.7363919710468
 20
633.4124999999999
 30
0.0
 11
456.8886080289532
 21
633.4124999999999
 31
0.0
  0
LINE
  5
172
330
1F
100
AcDbEntity
  8
Thru-cut
 62
     5
420
      255
370
     5
100
AcDbLine
 10
456.8886080289532
 20
633.4124999999999
 30
0.0
 11
455.6125
 21
628.65
 31
0.0
  0
LINE
  5
173
330
1F
100
AcDbEntity
  8
Thru-cut
 62
     5
420
      255
370
     5
100
AcDbLine
 10
579.4375
 20
517.525
 30
0.0
 11
585.7875
 21
511.175
 31
0.0
  0
LINE
  5
174
330
1F
100
AcDbEntity
  8
Thru-cut
 62
     5
420
      255
370
     5
100
AcDbLine
 10
577.85
 20
571.5
 30
0.0
 11
528.6374999999999
 21
571.5
 31
0.0
  0
LINE
  5
175
330
1F
100
AcDbEntity
  8
Crease
 62
     3
420
    65280
370
     5
100
AcDbLine
 10
481.0125
 20
519.1125
 30
0.0
 11
528.6374999999999
 21
519.1125
 31
0.0
  0
LINE
  5
176
330
1F
100
AcDbEntity
  8
Thru-cut
 62
     5
420
      255
370
     5
100
AcDbLine
 10
481.0125
 20
511.175
 30
0.0
 11
481.0125
 21
519.1125
 31
0.0
  0
LINE
  5
177
330
1F
100
AcDbEntity
  8
Thru-cut
 62
     5
420
      255
370
     5
100
AcDbLine
 10
943.0374999999999
 20
176.2125
 30
0.0
 11
943.0374999999999
 21
169.8625
 31
0.0
  0
LINE
  5
178
330
1F
100
AcDbEntity
  8
Thru-cut
 62
     5
420
      255
370
     5
100
AcDbLine
 10
781.1125
 20
169.8625
 30
0.0
 11
781.1125
 21
176.2125
 31
0.0
  0
LINE
  5
179
330
1F
100
AcDbEntity
  8
Thru-cut
 62
     5
420
      255
370
     5
100
AcDbLine
 10
781.1125
 20
169.8625
 30
0.0
 11
836.675
 21
169.8625
 31
0.0
  0
LINE
  5
17A
330
1F
100
AcDbEntity
  8
Crease
 62
     3
420
    65280
370
     5
100
AcDbLine
 10
417.5125
 20
577.85
 30
0.0
 11
417.5125
 21
577.85
 31
0.0
  0
LINE
  5
17B
330
1F
100
AcDbEntity
  8
Thru-cut
 62
     5
420
      255
370
     5
100
AcDbLine
 10
309.5625
 20
628.65
 30
0.0
 11
347.6625
 21
628.65
 31
0.0
  0
LINE
  5
17C
330
1F
100
AcDbEntity
  8
Thru-cut
 62
     5
420
      255
370
     5
100
AcDbLine
 10
347.6625
 20
519.1125
 30
0.0
 11
347.6625
 21
511.175
 31
0.0
  0
LINE
  5
17D
330
1F
100
AcDbEntity
  8
Thru-cut
 62
     5
420
      255
370
     5
100
AcDbLine
 10
373.0625
 20
628.65
 30
0.0
 11
371.7863919710468
 21
633.4124999999999
 31
0.0
  0
LINE
  5
17E
330
1F
100
AcDbEntity
  8
Thru-cut
 62
     5
420
      255
370
     5
100
AcDbLine
 10
347.6625
 20
511.175
 30
0.0
 11
373.0625
 21
511.175
 31
0.0
  0
LINE
  5
17F
330
1F
100
AcDbEntity
  8
Thru-cut
 62
     5
420
      255
370
     5
100
AcDbLine
 10
373.0625
 20
511.175
 30
0.0
 11
373.0625
 21
519.1125
 31
0.0
  0
LINE
  5
180
330
1F
100
AcDbEntity
  8
Thru-cut
 62
     5
420
      255
370
     5
100
AcDbLine
 10
201.6125
 20
571.5317500000026
 30
0.0
 11
201.6125
 21
628.65
 31
0.0
  0
LINE
  5
181
330
1F
100
AcDbEntity
  8
Thru-cut
 62
     5
420
      255
370
     5
100
AcDbLine
 10
303.2125
 20
577.85
 30
0.0
 11
309.5625
 21
577.85
 31
0.0
  0
LINE
  5
182
330
1F
100
AcDbEntity
  8
Thru-cut
 62
     5
420
      255
370
     5
100
AcDbLine
 10
265.1125
 20
519.1125
 30
0.0
 11
239.7125
 21
519.1125
 31
0.0
  0
LINE
  5
183
330
1F
100
AcDbEntity
  8
Thru-cut
 62
     5
420
      255
370
     5
100
AcDbLine
 10
265.1125
 20
511.175
 30
0.0
 11
265.1125
 21
519.1125
 31
0.0
  0
LINE
  5
184
330
1F
100
AcDbEntity
  8
Thru-cut
 62
     5
420
      255
370
     5
100
AcDbLine
 10
239.7125
 20
511.175
 30
0.0
 11
265.1125
 21
511.175
 31
0.0
  0
LINE
  5
185
330
1F
100
AcDbEntity
  8
Thru-cut
 62
     5
420
      255
370
     5
100
AcDbLine
 10
585.7875
 20
244.475
 30
0.0
 11
585.7875
 21
250.825
 31
0.0
  0
LINE
  5
186
330
1F
100
AcDbEntity
  8
Thru-cut
 62
     5
420
      255
370
     5
100
AcDbLine
 10
481.0125
 20
109.5375
 30
0.0
 11
455.6125
 21
109.5375
 31
0.0
  0
LINE
  5
187
330
1F
100
AcDbEntity
  8
Thru-cut
 62
     5
420
      255
370
     5
100
AcDbLine
 10
455.6125
 20
109.5375
 30
0.0
 11
455.6125
 21
117.475
 31
0.0
  0
LINE
  5
188
330
1F
100
AcDbEntity
  8
Thru-cut
 62
     5
420
      255
370
     5
100
AcDbLine
 10
577.85
 20
517.525
 30
0.0
 11
579.4375
 21
517.525
 31
0.0
  0
LINE
  5
189
330
1F
100
AcDbEntity
  8
Thru-cut
 62
     5
420
      255
370
     5
100
AcDbLine
 10
527.05
 20
460.375
 30
0.0
 11
527.05
 21
434.975
 31
0.0
  0
LINE
  5
18A
330
1F
100
AcDbEntity
  8
Thru-cut
 62
     5
420
      255
370
     5
100
AcDbLine
 10
417.5125
 20
571.5317500000026
 30
0.0
 11
417.5125
 21
628.65
 31
0.0
  0
LINE
  5
18B
330
1F
100
AcDbEntity
  8
Thru-cut
 62
     5
420
      255
370
     5
100
AcDbLine
 10
523.875
 20
579.4375
 30
0.0
 11
523.875
 21
577.85
 31
0.0
  0
LINE
  5
18C
330
1F
100
AcDbEntity
  8
Thru-cut
 62
     5
420
      255
370
     5
100
AcDbLine
 10
523.875
 20
579.4375
 30
0.0
 11
612.775
 21
579.4375
 31
0.0
  0
LINE
  5
18D
330
1F
100
AcDbEntity
  8
Thru-cut
 62
     5
420
      255
370
     5
100
AcDbLine
 10
612.775
 20
579.4375
 30
0.0
 11
612.775
 21
628.65
 31
0.0
  0
LINE
  5
18E
330
1F
100
AcDbEntity
  8
Thru-cut
 62
     5
420
      255
370
     5
100
AcDbLine
 10
528.6374999999999
 20
571.5
 30
0.0
 11
523.875
 21
577.85
 31
0.0
  0
LINE
  5
18F
330
1F
100
AcDbEntity
  8
Thru-cut
 62
     5
420
      255
370
     5
100
AcDbLine
 10
612.775
 20
628.65
 30
0.0
 11
481.0125
 21
628.65
 31
0.0
  0
LINE
  5
190
330
1F
100
AcDbEntity
  8
Thru-cut
 62
     5
420
      255
370
     5
100
AcDbLine
 10
479.7363919710468
 20
633.4124999999999
 30
0.0
 11
481.0125
 21
628.65
 31
0.0
  0
LINE
  5
191
330
1F
100
AcDbEntity
  8
Thru-cut
 62
     5
420
      255
370
     5
100
AcDbLine
 10
577.85
 20
517.525
 30
0.0
 11
577.85
 21
571.5
 31
0.0
  0
LINE
  5
192
330
1F
100
AcDbEntity
  8
Thru-cut
 62
     5
420
      255
370
     5
100
AcDbLine
 10
527.05
 20
517.525
 30
0.0
 11
528.6374999999999
 21
519.1125
 31
0.0
  0
LINE
  5
193
330
1F
100
AcDbEntity
  8
Thru-cut
 62
     5
420
      255
370
     5
100
AcDbLine
 10
239.7125
 20
628.65
 30
0.0
 11
240.9886080289532
 21
633.4124999999999
 31
0.0
  0
LINE
  5
194
330
1F
100
AcDbEntity
  8
Thru-cut
 62
     5
420
      255
370
     5
100
AcDbLine
 10
309.5625
 20
628.65
 30
0.0
 11
309.5625
 21
571.5317500000026
 31
0.0
  0
LINE
  5
195
330
1F
100
AcDbEntity
  8
Thru-cut
 62
     5
420
      255
370
     5
100
AcDbLine
 10
265.1125
 20
628.65
 30
0.0
 11
303.2125
 21
628.65
 31
0.0
  0
LINE
  5
196
330
1F
100
AcDbEntity
  8
Thru-cut
 62
     5
420
      255
370
     5
100
AcDbLine
 10
577.85
 20
111.125
 30
0.0
 11
579.4375
 21
111.125
 31
0.0
  0
LINE
  5
197
330
1F
100
AcDbEntity
  8
Thru-cut
 62
     5
420
      255
370
     5
100
AcDbLine
 10
527.05
 20
111.125
 30
0.0
 11
528.6374999999999
 21
109.5375
 31
0.0
  0
LINE
  5
198
330
1F
100
AcDbEntity
  8
Thru-cut
 62
     5
420
      255
370
     5
100
AcDbLine
 10
636.5875
 20
168.275
 30
0.0
 11
641.3499999999999
 21
169.5511080289532
 31
0.0
  0
LINE
  5
199
330
1F
100
AcDbEntity
  8
Thru-cut
 62
     5
420
      255
370
     5
100
AcDbLine
 10
636.5875
 20
301.625
 30
0.0
 11
641.3499999999999
 21
302.9011080289532
 31
0.0
  0
LINE
  5
19A
330
1F
100
AcDbEntity
  8
Thru-cut
 62
     5
420
      255
370
     5
100
AcDbLine
 10
527.05
 20
301.625
 30
0.0
 11
519.1125
 21
301.625
 31
0.0
  0
LINE
  5
19B
330
1F
100
AcDbEntity
  8
Thru-cut
 62
     5
420
      255
370
     5
100
AcDbLine
 10
519.1125
 20
301.625
 30
0.0
 11
519.1125
 21
327.025
 31
0.0
  0
LINE
  5
19C
330
1F
100
AcDbEntity
  8
Thru-cut
 62
     5
420
      255
370
     5
100
AcDbLine
 10
641.3499999999999
 20
302.9011080289532
 30
0.0
 11
641.3499999999999
 21
325.7488919710467
 31
0.0
  0
LINE
  5
19D
330
1F
100
AcDbEntity
  8
Thru-cut
 62
     5
420
      255
370
     5
100
AcDbLine
 10
527.05
 20
327.025
 30
0.0
 11
527.05
 21
301.625
 31
0.0
  0
LINE
  5
19E
330
1F
100
AcDbEntity
  8
Thru-cut
 62
     5
420
      255
370
     5
100
AcDbLine
 10
33.3375
 20
517.525
 30
0.0
 11
26.9875
 21
511.175
 31
0.0
  0
LINE
  5
19F
330
1F
100
AcDbEntity
  8
Thru-cut
 62
     5
420
      255
370
     5
100
AcDbLine
 10
34.925
 20
517.525
 30
0.0
 11
33.3375
 21
517.525
 31
0.0
  0
LINE
  5
1A0
330
1F
100
AcDbEntity
  8
Thru-cut
 62
     5
420
      255
370
     5
100
AcDbLine
 10
85.725
 20
517.525
 30
0.0
 11
84.13749999999999
 21
519.1125
 31
0.0
  0
LINE
  5
1A1
330
1F
100
AcDbEntity
  8
Crease
 62
     3
420
    65280
370
     5
100
AcDbLine
 10
201.6125
 20
577.85
 30
0.0
 11
303.2125
 21
577.85
 31
0.0
  0
LINE
  5
1A2
330
1F
100
AcDbEntity
  8
Crease
 62
     3
420
    65280
370
     5
100
AcDbLine
 10
265.1125
 20
519.1125
 30
0.0
 11
347.6625
 21
519.1125
 31
0.0
  0
LINE
  5
1A3
330
1F
100
AcDbEntity
  8
Thru-cut
 62
     5
420
      255
370
     5
100
AcDbLine
 10
347.6625
 20
628.65
 30
0.0
 11
348.9386080289532
 21
633.4124999999999
 31
0.0
  0
LINE
  5
1A4
330
1F
100
AcDbEntity
  8
Thru-cut
 62
     5
420
      255
370
     5
100
AcDbLine
 10
348.9386080289532
 20
633.4124999999999
 30
0.0
 11
371.7863919710468
 21
633.4124999999999
 31
0.0
  0
LINE
  5
1A5
330
1F
100
AcDbEntity
  8
Thru-cut
 62
     5
420
      255
370
     5
100
AcDbLine
 10
373.0625
 20
519.1125
 30
0.0
 11
347.6625
 21
519.1125
 31
0.0
  0
LINE
  5
1A6
330
1F
100
AcDbEntity
  8
Thru-cut
 62
     5
420
      255
370
     5
100
AcDbLine
 10
195.2625
 20
577.85
 30
0.0
 11
201.6125
 21
577.85
 31
0.0
  0
LINE
  5
1A7
330
1F
100
AcDbEntity
  8
Thru-cut
 62
     5
420
      255
370
     5
100
AcDbLine
 10
240.9886080289532
 20
633.4124999999999
 30
0.0
 11
263.8363919710466
 21
633.4124999999999
 31
0.0
  0
LINE
  5
1A8
330
1F
100
AcDbEntity
  8
Thru-cut
 62
     5
420
      255
370
     5
100
AcDbLine
 10
93.6625
 20
434.975
 30
0.0
 11
93.6625
 21
460.375
 31
0.0
  0
LINE
  5
1A9
330
1F
100
AcDbEntity
  8
Thru-cut
 62
     5
420
      255
370
     5
100
AcDbLine
 10
34.925
 20
517.525
 30
0.0
 11
34.925
 21
571.5
 31
0.0
  0
LINE
  5
1AA
330
1F
100
AcDbEntity
  8
Thru-cut
 62
     5
420
      255
370
     5
100
AcDbLine
 10
93.6625
 20
460.375
 30
0.0
 11
85.725
 21
460.375
 31
0.0
  0
LINE
  5
1AB
330
1F
100
AcDbEntity
  8
Crease
 62
     3
420
    65280
370
     5
100
AcDbLine
 10
85.725
 20
384.175
 30
0.0
 11
85.725
 21
384.175
 31
0.0
  0
LINE
  5
1AC
330
1F
100
AcDbEntity
  8
Crease
 62
     3
420
    65280
370
     5
100
AcDbLine
 10
26.9875
 20
384.175
 30
0.0
 11
26.9875
 21
384.175
 31
0.0
  0
LINE
  5
1AD
330
1F
100
AcDbEntity
  8
Thru-cut
 62
     5
420
      255
370
     5
100
AcDbLine
 10
523.875
 20
49.2125
 30
0.0
 11
612.775
 21
49.2125
 31
0.0
  0
LINE
  5
1AE
330
1F
100
AcDbEntity
  8
Thru-cut
 62
     5
420
      255
370
     5
100
AcDbLine
 10
528.6374999999999
 20
109.5375
 30
0.0
 11
528.6374999999999
 21
57.15
 31
0.0
  0
LINE
  5
1AF
330
1F
100
AcDbEntity
  8
Thru-cut
 62
     5
420
      255
370
     5
100
AcDbLine
 10
528.6374999999999
 20
57.15
 30
0.0
 11
523.875
 21
50.8
 31
0.0
  0
LINE
  5
1B0
330
1F
100
AcDbEntity
  8
Thru-cut
 62
     5
420
      255
370
     5
100
AcDbLine
 10
636.5875
 20
193.675
 30
0.0
 11
641.3499999999999
 21
192.3988919710467
 31
0.0
  0
LINE
  5
1B1
330
1F
100
AcDbEntity
  8
Crease
 62
     3
420
    65280
370
     5
100
AcDbLine
 10
527.05
 20
111.125
 30
0.0
 11
527.05
 21
168.275
 31
0.0
  0
LINE
  5
1B2
330
1F
100
AcDbEntity
  8
Thru-cut
 62
     5
420
      255
370
     5
100
AcDbLine
 10
674.75
 20
303.2125
 30
0.0
 11
674.75
 21
309.5625
 31
0.0
  0
LINE
  5
1B3
330
1F
100
AcDbEntity
  8
Thru-cut
 62
     5
420
      255
370
     5
100
AcDbLine
 10
519.1125
 20
327.025
 30
0.0
 11
527.05
 21
327.025
 31
0.0
  0
LINE
  5
1B4
330
1F
100
AcDbEntity
  8
Thru-cut
 62
     5
420
      255
370
     5
100
AcDbLine
 10
579.4692500000026
 20
250.825
 30
0.0
 11
636.5875
 21
250.825
 31
0.0
  0
LINE
  5
1B5
330
1F
100
AcDbEntity
  8
Thru-cut
 62
     5
420
      255
370
     5
100
AcDbLine
 10
585.7875
 20
244.475
 30
0.0
 11
636.5875
 21
244.475
 31
0.0
  0
LINE
  5
1B6
330
1F
100
AcDbEntity
  8
Crease
 62
     3
420
    65280
370
     5
100
AcDbLine
 10
417.5125
 20
50.8
 30
0.0
 11
417.5125
 21
50.8
 31
0.0
  0
LINE
  5
1B7
330
1F
100
AcDbEntity
  8
Crease
 62
     3
420
    65280
370
     5
100
AcDbLine
 10
527.05
 20
111.125
 30
0.0
 11
577.85
 21
111.125
 31
0.0
  0
LINE
  5
1B8
330
1F
100
AcDbEntity
  8
Thru-cut
 62
     5
420
      255
370
     5
100
AcDbLine
 10
674.75
 20
169.8625
 30
0.0
 11
674.75
 21
176.2125
 31
0.0
  0
LINE
  5
1B9
330
1F
100
AcDbEntity
  8
Thru-cut
 62
     5
420
      255
370
     5
100
AcDbLine
 10
577.85
 20
57.15
 30
0.0
 11
528.6374999999999
 21
57.15
 31
0.0
  0
LINE
  5
1BA
330
1F
100
AcDbEntity
  8
Thru-cut
 62
     5
420
      255
370
     5
100
AcDbLine
 10
455.6125
 20
117.475
 30
0.0
 11
481.0125
 21
117.475
 31
0.0
  0
LINE
  5
1BB
330
1F
100
AcDbEntity
  8
Thru-cut
 62
     5
420
      255
370
     5
100
AcDbLine
 10
585.7875
 20
117.475
 30
0.0
 11
636.5875
 21
117.475
 31
0.0
  0
LINE
  5
1BC
330
1F
100
AcDbEntity
  8
Thru-cut
 62
     5
420
      255
370
     5
100
AcDbLine
 10
577.85
 20
111.125
 30
0.0
 11
577.85
 21
57.15
 31
0.0
  0
LINE
  5
1BD
330
1F
100
AcDbEntity
  8
Perf-cut|000~999-090
 62
   151
420
 11452415
370
    25
100
AcDbLine
 10
88.89999999999999
 20
628.65
 30
0.0
 11
88.89999999999999
 21
579.4375
 31
0.0
  0
LINE
  5
1BE
330
1F
100
AcDbEntity
  8
Thru-cut
 62
     5
420
      255
370
     5
100
AcDbLine
 10
88.89999999999999
 20
579.4375
 30
0.0
 11
88.89999999999999
 21
577.85
 31
0.0
  0
LINE
  5
1BF
330
1F
100
AcDbEntity
  8
Thru-cut
 62
     5
420
      255
370
     5
100
AcDbLine
 10
84.13749999999999
 20
571.5
 30
0.0
 11
88.89999999999999
 21
577.85
 31
0.0
  0
LINE
  5
1C0
330
1F
100
AcDbEntity
  8
Thru-cut
 62
     5
420
      255
370
     5
100
AcDbLine
 10
84.13749999999999
 20
519.1125
 30
0.0
 11
84.13749999999999
 21
571.5
 31
0.0
  0
LINE
  5
1C1
330
1F
100
AcDbEntity
  8
Thru-cut
 62
     5
420
      255
370
     5
100
AcDbLine
 10
34.925
 20
571.5
 30
0.0
 11
84.13749999999999
 21
571.5
 31
0.0
  0
LINE
  5
1C2
330
1F
100
AcDbEntity
  8
Thru-cut
 62
     5
420
      255
370
     5
100
AcDbLine
 10
85.725
 20
434.975
 30
0.0
 11
93.6625
 21
434.975
 31
0.0
  0
LINE
  5
1C3
330
1F
100
AcDbEntity
  8
Thru-cut
 62
     5
420
      255
370
     5
100
AcDbLine
 10
585.7875
 20
377.825
 30
0.0
 11
636.5875
 21
377.825
 31
0.0
  0
LINE
  5
1C4
330
1F
100
AcDbEntity
  8
Thru-cut
 62
     5
420
      255
370
     5
100
AcDbLine
 10
585.7875
 20
377.825
 30
0.0
 11
585.7875
 21
384.175
 31
0.0
  0
LINE
  5
1C5
330
1F
100
AcDbEntity
  8
Crease
 62
     3
420
    65280
370
     5
100
AcDbLine
 10
527.05
 20
327.025
 30
0.0
 11
527.05
 21
384.175
 31
0.0
  0
LINE
  5
1C6
330
1F
100
AcDbEntity
  8
Thru-cut
 62
     5
420
      255
370
     5
100
AcDbLine
 10
85.725
 20
327.025
 30
0.0
 11
85.725
 21
301.625
 31
0.0
  0
LINE
  5
1C7
330
1F
100
AcDbEntity
  8
Thru-cut
 62
     5
420
      255
370
     5
100
AcDbLine
 10
85.725
 20
301.625
 30
0.0
 11
93.6625
 21
301.625
 31
0.0
  0
LINE
  5
1C8
330
1F
100
AcDbEntity
  8
Crease
 62
     3
420
    65280
370
     5
100
AcDbLine
 10
85.725
 20
327.025
 30
0.0
 11
85.725
 21
384.175
 31
0.0
  0
LINE
  5
1C9
330
1F
100
AcDbEntity
  8
Crease
 62
     3
420
    65280
370
     5
100
AcDbLine
 10
26.9875
 20
384.175
 30
0.0
 11
26.9875
 21
384.175
 31
0.0
  0
LINE
  5
1CA
330
1F
100
AcDbEntity
  8
Thru-cut
 62
     5
420
      255
370
     5
100
AcDbLine
 10
157.1625
 20
117.475
 30
0.0
 11
157.1625
 21
109.5375
 31
0.0
  0
LINE
  5
1CB
330
1F
100
AcDbEntity
  8
Crease
 62
     3
420
    65280
370
     5
100
AcDbLine
 10
201.6125
 20
50.8
 30
0.0
 11
303.2125
 21
50.8
 31
0.0
  0
LINE
  5
1CC
330
1F
100
AcDbEntity
  8
Thru-cut
 62
     5
420
      255
370
     5
100
AcDbLine
 10
33.3375
 20
111.125
 30
0.0
 11
26.9875
 21
117.475
 31
0.0
  0
LINE
  5
1CD
330
1F
100
AcDbEntity
  8
Crease
 62
     3
420
    65280
370
     5
100
AcDbLine
 10
85.725
 20
111.125
 30
0.0
 11
85.725
 21
168.275
 31
0.0
  0
LINE
  5
1CE
330
1F
100
AcDbEntity
  8
Crease
 62
     3
420
    65280
370
     5
100
AcDbLine
 10
85.725
 20
111.125
 30
0.0
 11
34.925
 21
111.125
 31
0.0
  0
LINE
  5
1CF
330
1F
100
AcDbEntity
  8
Thru-cut
 62
     5
420
      255
370
     5
100
AcDbLine
 10
373.0625
 20
109.5375
 30
0.0
 11
347.6625
 21
109.5375
 31
0.0
  0
LINE
  5
1D0
330
1F
100
AcDbEntity
  8
Thru-cut
 62
     5
420
      255
370
     5
100
AcDbLine
 10
309.5625
 20
0.0
 30
0.0
 11
309.5625
 21
57.11824999999999
 31
0.0
  0
LINE
  5
1D1
330
1F
100
AcDbEntity
  8
Thru-cut
 62
     5
420
      255
370
     5
100
AcDbLine
 10
303.2125
 20
50.8
 30
0.0
 11
309.5625
 21
50.8
 31
0.0
  0
LINE
  5
1D2
330
1F
100
AcDbEntity
  8
Thru-cut
 62
     5
420
      255
370
     5
100
AcDbLine
 10
265.1125
 20
109.5375
 30
0.0
 11
239.7125
 21
109.5375
 31
0.0
  0
LINE
  5
1D3
330
1F
100
AcDbEntity
  8
Crease
 62
     3
420
    65280
370
     5
100
AcDbLine
 10
85.725
 20
460.375
 30
0.0
 11
85.725
 21
517.525
 31
0.0
  0
LINE
  5
1D4
330
1F
100
AcDbEntity
  8
Crease
 62
     3
420
    65280
370
     5
100
AcDbLine
 10
85.725
 20
517.525
 30
0.0
 11
34.925
 21
517.525
 31
0.0
  0
LINE
  5
1D5
330
1F
100
AcDbEntity
  8
Crease
 62
     3
420
    65280
370
     5
100
AcDbLine
 10
585.7875
 20
384.175
 30
0.0
 11
585.7875
 21
384.175
 31
0.0
  0
LINE
  5
1D6
330
1F
100
AcDbEntity
  8
Crease
 62
     3
420
    65280
370
     5
100
AcDbLine
 10
585.7875
 20
117.475
 30
0.0
 11
585.7875
 21
244.475
 31
0.0
  0
LINE
  5
1D7
330
1F
100
AcDbEntity
  8
Thru-cut
 62
     5
420
      255
370
     5
100
AcDbLine
 10
636.5875
 20
193.675
 30
0.0
 11
636.5875
 21
244.475
 31
0.0
  0
LINE
  5
1D8
330
1F
100
AcDbEntity
  8
Thru-cut
 62
     5
420
      255
370
     5
100
AcDbLine
 10
579.4375
 20
111.125
 30
0.0
 11
585.7875
 21
117.475
 31
0.0
  0
LINE
  5
1D9
330
1F
100
AcDbEntity
  8
Thru-cut
 62
     5
420
      255
370
     5
100
AcDbLine
 10
523.875
 20
49.2125
 30
0.0
 11
523.875
 21
50.8
 31
0.0
  0
LINE
  5
1DA
330
1F
100
AcDbEntity
  8
Crease
 62
     3
420
    65280
370
     5
100
AcDbLine
 10
481.0125
 20
109.5375
 30
0.0
 11
528.6374999999999
 21
109.5375
 31
0.0
  0
LINE
  5
1DB
330
1F
100
AcDbEntity
  8
Thru-cut
 62
     5
420
      255
370
     5
100
AcDbLine
 10
26.9875
 20
384.175
 30
0.0
 11
26.9875
 21
377.825
 31
0.0
  0
LINE
  5
1DC
330
1F
100
AcDbEntity
  8
Thru-cut
 62
     5
420
      255
370
     5
100
AcDbLine
 10
-23.8125
 20
384.175
 30
0.0
 11
33.30575
 21
384.175
 31
0.0
  0
LINE
  5
1DD
330
1F
100
AcDbEntity
  8
Thru-cut
 62
     5
420
      255
370
     5
100
AcDbLine
 10
636.5875
 20
327.025
 30
0.0
 11
641.3499999999999
 21
325.7488919710467
 31
0.0
  0
LINE
  5
1DE
330
1F
100
AcDbEntity
  8
Thru-cut
 62
     5
420
      255
370
     5
100
AcDbLine
 10
636.5875
 20
327.025
 30
0.0
 11
636.5875
 21
377.825
 31
0.0
  0
LINE
  5
1DF
330
1F
100
AcDbEntity
  8
Crease
 62
     3
420
    65280
370
     5
100
AcDbLine
 10
26.9875
 20
117.475
 30
0.0
 11
26.9875
 21
244.475
 31
0.0
  0
LINE
  5
1E0
330
1F
100
AcDbEntity
  8
Thru-cut
 62
     5
420
      255
370
     5
100
AcDbLine
 10
26.9875
 20
244.475
 30
0.0
 11
26.9875
 21
250.825
 31
0.0
  0
LINE
  5
1E1
330
1F
100
AcDbEntity
  8
Thru-cut
 62
     5
420
      255
370
     5
100
AcDbLine
 10
84.13749999999999
 20
109.5375
 30
0.0
 11
84.13749999999999
 21
57.15
 31
0.0
  0
LINE
  5
1E2
330
1F
100
AcDbEntity
  8
Thru-cut
 62
     5
420
      255
370
     5
100
AcDbLine
 10
88.89999999999999
 20
49.2125
 30
0.0
 11
88.89999999999999
 21
50.8
 31
0.0
  0
LINE
  5
1E3
330
1F
100
AcDbEntity
  8
Thru-cut
 62
     5
420
      255
370
     5
100
AcDbLine
 10
34.925
 20
111.125
 30
0.0
 11
34.925
 21
57.15
 31
0.0
  0
LINE
  5
1E4
330
1F
100
AcDbEntity
  8
Thru-cut
 62
     5
420
      255
370
     5
100
AcDbLine
 10
85.725
 20
111.125
 30
0.0
 11
84.13749999999999
 21
109.5375
 31
0.0
  0
LINE
  5
1E5
330
1F
100
AcDbEntity
  8
Thru-cut
 62
     5
420
      255
370
     5
100
AcDbLine
 10
34.925
 20
111.125
 30
0.0
 11
33.3375
 21
111.125
 31
0.0
  0
LINE
  5
1E6
330
1F
100
AcDbEntity
  8
Thru-cut
 62
     5
420
      255
370
     5
100
AcDbLine
 10
131.7625
 20
109.5375
 30
0.0
 11
131.7625
 21
117.475
 31
0.0
  0
LINE
  5
1E7
330
1F
100
AcDbEntity
  8
Crease
 62
     3
420
    65280
370
     5
100
AcDbLine
 10
84.13749999999999
 20
109.5375
 30
0.0
 11
131.7625
 21
109.5375
 31
0.0
  0
LINE
  5
1E8
330
1F
100
AcDbEntity
  8
Thru-cut
 62
     5
420
      255
370
     5
100
AcDbLine
 10
239.7125
 20
117.475
 30
0.0
 11
265.1125
 21
117.475
 31
0.0
  0
LINE
  5
1E9
330
1F
100
AcDbEntity
  8
Crease
 62
     3
420
    65280
370
     5
100
AcDbLine
 10
157.1625
 20
109.5375
 30
0.0
 11
239.7125
 21
109.5375
 31
0.0
  0
LINE
  5
1EA
330
1F
100
AcDbEntity
  8
Perf-cut|000~999-090
 62
   151
420
 11452415
370
    25
100
AcDbLine
 10
917.6374999999999
 20
38.09999999999999
 30
0.0
 11
968.4374999999999
 21
38.09999999999999
 31
0.0
  0
LINE
  5
1EB
330
1F
100
AcDbEntity
  8
Crease
 62
     3
420
    65280
370
     5
100
AcDbLine
 10
523.875
 20
577.85
 30
0.0
 11
417.5125
 21
577.85
 31
0.0
  0
LINE
  5
1EC
330
1F
100
AcDbEntity
  8
Thru-cut
 62
     5
420
      255
370
     5
100
AcDbLine
 10
527.05
 20
193.675
 30
0.0
 11
527.05
 21
168.275
 31
0.0
  0
LINE
  5
1ED
330
1F
100
AcDbEntity
  8
Thru-cut
 62
     5
420
      255
370
     5
100
AcDbLine
 10
519.1125
 20
193.675
 30
0.0
 11
527.05
 21
193.675
 31
0.0
  0
LINE
  5
1EE
330
1F
100
AcDbEntity
  8
Thru-cut
 62
     5
420
      255
370
     5
100
AcDbLine
 10
411.1625
 20
50.8
 30
0.0
 11
417.5125
 21
50.8
 31
0.0
  0
LINE
  5
1EF
330
1F
100
AcDbEntity
  8
Crease
 62
     3
420
    65280
370
     5
100
AcDbLine
 10
417.5125
 20
50.8
 30
0.0
 11
417.5125
 21
50.8
 31
0.0
  0
LINE
  5
1F0
330
1F
100
AcDbEntity
  8
Crease
 62
     3
420
    65280
370
     5
100
AcDbLine
 10
417.5125
 20
109.5375
 30
0.0
 11
417.5125
 21
109.5375
 31
0.0
  0
LINE
  5
1F1
330
1F
100
AcDbEntity
  8
Thru-cut
 62
     5
420
      255
370
     5
100
AcDbLine
 10
636.5875
 20
117.475
 30
0.0
 11
636.5875
 21
168.275
 31
0.0
  0
LINE
  5
1F2
330
1F
100
AcDbEntity
  8
Thru-cut
 62
     5
420
      255
370
     5
100
AcDbLine
 10
519.1125
 20
168.275
 30
0.0
 11
519.1125
 21
193.675
 31
0.0
  0
LINE
  5
1F3
330
1F
100
AcDbEntity
  8
Thru-cut
 62
     5
420
      255
370
     5
100
AcDbLine
 10
527.05
 20
168.275
 30
0.0
 11
519.1125
 21
168.275
 31
0.0
  0
LINE
  5
1F4
330
1F
100
AcDbEntity
  8
Thru-cut
 62
     5
420
      255
370
     5
100
AcDbLine
 10
641.3499999999999
 20
169.5511080289532
 30
0.0
 11
641.3499999999999
 21
192.3988919710467
 31
0.0
  0
LINE
  5
1F5
330
1F
100
AcDbEntity
  8
Thru-cut
 62
     5
420
      255
370
     5
100
AcDbLine
 10
239.7125
 20
109.5375
 30
0.0
 11
239.7125
 21
117.475
 31
0.0
  0
LINE
  5
1F6
330
1F
100
AcDbEntity
  8
Thru-cut
 62
     5
420
      255
370
     5
100
AcDbLine
 10
195.2625
 20
50.8
 30
0.0
 11
201.6125
 21
50.8
 31
0.0
  0
LINE
  5
1F7
330
1F
100
AcDbEntity
  8
Thru-cut
 62
     5
420
      255
370
     5
100
AcDbLine
 10
481.0125
 20
117.475
 30
0.0
 11
481.0125
 21
109.5375
 31
0.0
  0
LINE
  5
1F8
330
1F
100
AcDbEntity
  8
Thru-cut
 62
     5
420
      255
370
     5
100
AcDbLine
 10
1001.837500000003
 20
252.4125
 30
0.0
 11
1001.837500000003
 21
258.7625
 31
0.0
  0
LINE
  5
1F9
330
1F
100
AcDbEntity
  8
Thru-cut
 62
     5
420
      255
370
     5
100
AcDbLine
 10
157.1625
 20
519.1125
 30
0.0
 11
131.7625
 21
519.1125
 31
0.0
  0
LINE
  5
1FA
330
1F
100
AcDbEntity
  8
Thru-cut
 62
     5
420
      255
370
     5
100
AcDbLine
 10
131.7625
 20
511.175
 30
0.0
 11
157.1625
 21
511.175
 31
0.0
  0
LINE
  5
1FB
330
1F
100
AcDbEntity
  8
Thru-cut
 62
     5
420
      255
370
     5
100
AcDbLine
 10
968.4374999999999
 20
479.425
 30
0.0
 11
917.6374999999999
 21
479.425
 31
0.0
  0
LINE
  5
1FC
330
1F
100
AcDbEntity
  8
Thru-cut
 62
     5
420
      255
370
     5
100
AcDbLine
 10
131.7625
 20
628.65
 30
0.0
 11
133.0386080289532
 21
633.4124999999999
 31
0.0
  0
LINE
  5
1FD
330
1F
100
AcDbEntity
  8
Thru-cut
 62
     5
420
      255
370
     5
100
AcDbLine
 10
131.7625
 20
519.1125
 30
0.0
 11
131.7625
 21
511.175
 31
0.0
  0
LINE
  5
1FE
330
1F
100
AcDbEntity
  8
Crease
 62
     3
420
    65280
370
     5
100
AcDbLine
 10
585.7875
 20
250.825
 30
0.0
 11
585.7875
 21
377.825
 31
0.0
  0
LINE
  5
1FF
330
1F
100
AcDbEntity
  8
Thru-cut
 62
     5
420
      255
370
     5
100
AcDbLine
 10
636.5875
 20
250.825
 30
0.0
 11
636.5875
 21
301.625
 31
0.0
  0
LINE
  5
200
330
1F
100
AcDbEntity
  8
Crease
 62
     3
420
    65280
370
     5
100
AcDbLine
 10
527.05
 20
193.675
 30
0.0
 11
527.05
 21
301.625
 31
0.0
  0
LINE
  5
201
330
1F
100
AcDbEntity
  8
Thru-cut
 62
     5
420
      255
370
     5
100
AcDbLine
 10
1189.162500000003
 20
150.8125
 30
0.0
 11
1189.162500000003
 21
252.4125
 31
0.0
  0
LINE
  5
202
330
1F
100
AcDbEntity
  8
Thru-cut
 62
     5
420
      255
370
     5
100
AcDbLine
 10
1082.800000000003
 20
150.8125
 30
0.0
 11
1082.800000000003
 21
252.4125
 31
0.0
  0
LINE
  5
203
330
1F
100
AcDbEntity
  8
Crease
 62
     3
420
    65280
370
     5
100
AcDbLine
 10
917.6374999999999
 20
436.5625
 30
0.0
 11
917.6374999999999
 21
309.5625
 31
0.0
  0
LINE
  5
204
330
1F
100
AcDbEntity
  8
Thru-cut
 62
     5
420
      255
370
     5
100
AcDbLine
 10
1057.400000000003
 20
258.7625
 30
0.0
 11
1057.400000000003
 21
252.4125
 31
0.0
  0
LINE
  5
205
330
1F
100
AcDbEntity
  8
Thru-cut
 62
     5
420
      255
370
     5
100
AcDbLine
 10
265.1125
 20
117.475
 30
0.0
 11
265.1125
 21
109.5375
 31
0.0
  0
LINE
  5
206
330
1F
100
AcDbEntity
  8
Crease
 62
     3
420
    65280
370
     5
100
AcDbLine
 10
265.1125
 20
109.5375
 30
0.0
 11
347.6625
 21
109.5375
 31
0.0
  0
LINE
  5
207
330
1F
100
AcDbEntity
  8
Thru-cut
 62
     5
420
      255
370
     5
100
AcDbLine
 10
34.925
 20
57.15
 30
0.0
 11
84.13749999999999
 21
57.15
 31
0.0
  0
LINE
  5
208
330
1F
100
AcDbEntity
  8
Thru-cut
 62
     5
420
      255
370
     5
100
AcDbLine
 10
85.725
 20
168.275
 30
0.0
 11
93.6625
 21
168.275
 31
0.0
  0
LINE
  5
209
330
1F
100
AcDbEntity
  8
Thru-cut
 62
     5
420
      255
370
     5
100
AcDbLine
 10
93.6625
 20
168.275
 30
0.0
 11
93.6625
 21
193.675
 31
0.0
  0
LINE
  5
20A
330
1F
100
AcDbEntity
  8
Thru-cut
 62
     5
420
      255
370
     5
100
AcDbLine
 10
347.6625
 20
109.5375
 30
0.0
 11
347.6625
 21
117.475
 31
0.0
  0
LINE
  5
20B
330
1F
100
AcDbEntity
  8
Thru-cut
 62
     5
420
      255
370
     5
100
AcDbLine
 10
347.6625
 20
117.475
 30
0.0
 11
373.0625
 21
117.475
 31
0.0
  0
LINE
  5
20C
330
1F
100
AcDbEntity
  8
Thru-cut
 62
     5
420
      255
370
     5
100
AcDbLine
 10
373.0625
 20
117.475
 30
0.0
 11
373.0625
 21
109.5375
 31
0.0
  0
LINE
  5
20D
330
1F
100
AcDbEntity
  8
Thru-cut
 62
     5
420
      255
370
     5
100
AcDbLine
 10
93.6625
 20
327.025
 30
0.0
 11
85.725
 21
327.025
 31
0.0
  0
LINE
  5
20E
330
1F
100
AcDbEntity
  8
Thru-cut
 62
     5
420
      255
370
     5
100
AcDbLine
 10
93.6625
 20
301.625
 30
0.0
 11
93.6625
 21
327.025
 31
0.0
  0
LINE
  5
20F
330
1F
100
AcDbEntity
  8
Crease
 62
     3
420
    65280
370
     5
100
AcDbLine
 10
84.13749999999999
 20
519.1125
 30
0.0
 11
131.7625
 21
519.1125
 31
0.0
  0
LINE
  5
210
330
1F
100
AcDbEntity
  8
Thru-cut
 62
     5
420
      255
370
     5
100
AcDbLine
 10
-23.8125
 20
250.825
 30
0.0
 11
33.30575
 21
250.825
 31
0.0
  0
LINE
  5
211
330
1F
100
AcDbEntity
  8
Crease
 62
     3
420
    65280
370
     5
100
AcDbLine
 10
523.875
 20
50.8
 30
0.0
 11
417.5125
 21
50.8
 31
0.0
  0
LINE
  5
212
330
1F
100
AcDbEntity
  8
Crease
 62
     3
420
    65280
370
     5
100
AcDbLine
 10
417.5125
 20
109.5375
 30
0.0
 11
455.6125
 21
109.5375
 31
0.0
  0
LINE
  5
213
330
1F
100
AcDbEntity
  8
Thru-cut
 62
     5
420
      255
370
     5
100
AcDbLine
 10
1108.200000000003
 20
252.4125
 30
0.0
 11
1108.200000000003
 21
258.7625
 31
0.0
  0
LINE
  5
214
330
1F
100
AcDbEntity
  8
Crease
 62
     3
420
    65280
370
     5
100
AcDbLine
 10
26.9875
 20
511.175
 30
0.0
 11
26.9875
 21
384.175
 31
0.0
  0
LINE
  5
215
330
1F
100
AcDbEntity
  8
Crease
 62
     3
420
    65280
370
     5
100
AcDbLine
 10
85.725
 20
384.175
 30
0.0
 11
85.725
 21
434.975
 31
0.0
  0
LINE
  5
216
330
1F
100
AcDbEntity
  8
Perf-cut|000~999-090
 62
   151
420
 11452415
370
    25
100
AcDbLine
 10
1025.650000000003
 20
473.075
 30
0.0
 11
976.4375000000028
 21
473.075
 31
0.0
  0
LINE
  5
217
330
1F
100
AcDbEntity
  8
Thru-cut
 62
     5
420
      255
370
     5
100
AcDbLine
 10
976.4375000000028
 20
511.175
 30
0.0
 11
1025.650000000003
 21
511.175
 31
0.0
  0
LINE
  5
218
330
1F
100
AcDbEntity
  8
Crease
 62
     3
420
    65280
370
     5
100
AcDbLine
 10
700.15
 20
309.5625
 30
0.0
 11
700.15
 21
309.5625
 31
0.0
  0
LINE
  5
219
330
1F
100
AcDbEntity
  8
Crease
 62
     3
420
    65280
370
     5
100
AcDbLine
 10
26.9875
 20
250.825
 30
0.0
 11
26.9875
 21
377.825
 31
0.0
  0
LINE
  5
21A
330
1F
100
AcDbEntity
  8
Crease
 62
     3
420
    65280
370
     5
100
AcDbLine
 10
85.725
 20
193.675
 30
0.0
 11
85.725
 21
301.625
 31
0.0
  0
LINE
  5
21B
330
1F
100
AcDbEntity
  8
Perf-cut|000~999-090
 62
   151
420
 11452415
370
    25
100
AcDbLine
 10
1025.650000000003
 20
38.09999999999999
 30
0.0
 11
976.4375000000028
 21
38.09999999999999
 31
0.0
  0
LINE
  5
21C
330
1F
100
AcDbEntity
  8
Crease
 62
     3
420
    65280
370
     5
100
AcDbLine
 10
84.13749999999999
 20
57.15
 30
0.0
 11
528.6374999999999
 21
57.15
 31
0.0
  0
LINE
  5
21D
330
1F
100
AcDbEntity
  8
Crease
 62
     3
420
    65280
370
     5
100
AcDbLine
 10
309.5625
 20
50.8
 30
0.0
 11
411.1625
 21
50.8
 31
0.0
  0
LINE
  5
21E
330
1F
100
AcDbEntity
  8
Thru-cut
 62
     5
420
      255
370
     5
100
AcDbLine
 10
455.6125
 20
628.65
 30
0.0
 11
417.5125
 21
628.65
 31
0.0
  0
LINE
  5
21F
330
1F
100
AcDbEntity
  8
Crease
 62
     3
420
    65280
370
     5
100
AcDbLine
 10
417.5125
 20
519.1125
 30
0.0
 11
455.6125
 21
519.1125
 31
0.0
  0
LINE
  5
220
330
1F
100
AcDbEntity
  8
Crease
 62
     3
420
    65280
370
     5
100
AcDbLine
 10
912.8749999999999
 20
309.5625
 30
0.0
 11
912.8749999999999
 21
436.5625
 31
0.0
  0
LINE
  5
221
330
1F
100
AcDbEntity
  8
Crease
 62
     3
420
    65280
370
     5
100
AcDbLine
 10
700.15
 20
176.2125
 30
0.0
 11
700.15
 21
303.2125
 31
0.0
  0
LINE
  5
222
330
1F
100
AcDbEntity
  8
Crease
 62
     3
420
    65280
370
     5
100
AcDbLine
 10
912.8749999999999
 20
176.2125
 30
0.0
 11
912.8749999999999
 21
303.2125
 31
0.0
  0
LINE
  5
223
330
1F
100
AcDbEntity
  8
Crease
 62
     3
420
    65280
370
     5
100
AcDbLine
 10
917.6374999999999
 20
303.2125
 30
0.0
 11
917.6374999999999
 21
176.2125
 31
0.0
  0
LINE
  5
224
330
1F
100
AcDbEntity
  8
Thru-cut
 62
     5
420
      255
370
     5
100
AcDbLine
 10
131.7625
 20
117.475
 30
0.0
 11
157.1625
 21
117.475
 31
0.0
  0
LINE
  5
225
330
1F
100
AcDbEntity
  8
Thru-cut
 62
     5
420
      255
370
     5
100
AcDbLine
 10
157.1625
 20
109.5375
 30
0.0
 11
131.7625
 21
109.5375
 31
0.0
  0
LINE
  5
226
330
1F
100
AcDbEntity
  8
Thru-cut
 62
     5
420
      255
370
     5
100
AcDbLine
 10
93.6625
 20
193.675
 30
0.0
 11
85.725
 21
193.675
 31
0.0
  0
LINE
  5
227
330
1F
100
AcDbEntity
  8
Thru-cut
 62
     5
420
      255
370
     5
100
AcDbLine
 10
85.725
 20
193.675
 30
0.0
 11
85.725
 21
168.275
 31
0.0
  0
LINE
  5
228
330
1F
100
AcDbEntity
  8
Thru-cut
 62
     5
420
      255
370
     5
100
AcDbLine
 10
84.13749999999999
 20
57.15
 30
0.0
 11
88.89999999999999
 21
50.8
 31
0.0
  0
LINE
  5
229
330
1F
100
AcDbEntity
  8
Perf-cut|000~999-090
 62
   151
420
 11452415
370
    25
100
AcDbLine
 10
917.6374999999999
 20
441.325
 30
0.0
 11
968.4374999999999
 21
441.325
 31
0.0
  0
LINE
  5
22A
330
1F
100
AcDbEntity
  8
Thru-cut
 62
     5
420
      255
370
     5
100
AcDbLine
 10
1001.837500000003
 20
144.4625
 30
0.0
 11
976.4375000000028
 21
144.4625
 31
0.0
  0
LINE
  5
22B
330
1F
100
AcDbEntity
  8
Thru-cut
 62
     5
420
      255
370
     5
100
AcDbLine
 10
1001.837500000003
 20
252.4125
 30
0.0
 11
976.4375000000028
 21
252.4125
 31
0.0
  0
LINE
  5
22C
330
1F
100
AcDbEntity
  8
Thru-cut
 62
     5
420
      255
370
     5
100
AcDbLine
 10
1001.837500000003
 20
258.7625
 30
0.0
 11
976.4375000000028
 21
258.7625
 31
0.0
  0
LINE
  5
22D
330
1F
100
AcDbEntity
  8
Thru-cut
 62
     5
420
      255
370
     5
100
AcDbLine
 10
1001.837500000003
 20
360.3625
 30
0.0
 11
976.4375000000028
 21
360.3625
 31
0.0
  0
LINE
  5
22E
330
1F
100
AcDbEntity
  8
Thru-cut
 62
     5
420
      255
370
     5
100
AcDbLine
 10
1001.837500000003
 20
366.7125
 30
0.0
 11
976.4375000000028
 21
366.7125
 31
0.0
  0
LINE
  5
22F
330
1F
100
AcDbEntity
  8
Crease
 62
     3
420
    65280
370
     5
100
AcDbLine
 10
704.9124999999999
 20
303.2125
 30
0.0
 11
704.9124999999999
 21
176.2125
 31
0.0
  0
LINE
  5
230
330
1F
100
AcDbEntity
  8
Crease
 62
     3
420
    65280
370
     5
100
AcDbLine
 10
527.05
 20
384.175
 30
0.0
 11
527.05
 21
434.975
 31
0.0
  0
LINE
  5
231
330
1F
100
AcDbEntity
  8
Crease
 62
     3
420
    65280
370
     5
100
AcDbLine
 10
585.7875
 20
511.175
 30
0.0
 11
585.7875
 21
384.175
 31
0.0
  0
LINE
  5
232
330
1F
100
AcDbEntity
  8
Crease
 62
     3
420
    65280
370
     5
100
AcDbLine
 10
373.0625
 20
109.5375
 30
0.0
 11
417.5125
 21
109.5375
 31
0.0
  0
LINE
  5
233
330
1F
100
AcDbEntity
  8
Thru-cut
 62
     5
420
      255
370
     5
100
AcDbLine
 10
730.3125
 20
309.5625
 30
0.0
 11
674.75
 21
309.5625
 31
0.0
  0
LINE
  5
234
330
1F
100
AcDbEntity
  8
Thru-cut
 62
     5
420
      255
370
     5
100
AcDbLine
 10
730.3125
 20
176.2125
 30
0.0
 11
674.75
 21
176.2125
 31
0.0
  0
LINE
  5
235
330
1F
100
AcDbEntity
  8
Thru-cut
 62
     5
420
      255
370
     5
100
AcDbLine
 10
674.75
 20
169.8625
 30
0.0
 11
730.3125
 21
169.8625
 31
0.0
  0
LINE
  5
236
330
1F
100
AcDbEntity
  8
Crease
 62
     3
420
    65280
370
     5
100
AcDbLine
 10
912.8749999999999
 20
309.5625
 30
0.0
 11
912.8749999999999
 21
309.5625
 31
0.0
  0
LINE
  5
237
330
1F
100
AcDbEntity
  8
Thru-cut
 62
     5
420
      255
370
     5
100
AcDbLine
 10
1057.400000000003
 20
252.4125
 30
0.0
 11
1108.200000000003
 21
252.4125
 31
0.0
  0
LINE
  5
238
330
1F
100
AcDbEntity
  8
Thru-cut
 62
     5
420
      255
370
     5
100
AcDbLine
 10
1163.762500000003
 20
252.4125
 30
0.0
 11
1189.162500000003
 21
252.4125
 31
0.0
  0
LINE
  5
239
330
1F
100
AcDbEntity
  8
Thru-cut
 62
     5
420
      255
370
     5
100
AcDbLine
 10
1163.762500000003
 20
258.7625
 30
0.0
 11
1163.762500000003
 21
252.4125
 31
0.0
  0
LINE
  5
23A
330
1F
100
AcDbEntity
  8
Crease
 62
     3
420
    65280
370
     5
100
AcDbLine
 10
88.89999999999999
 20
50.8
 30
0.0
 11
195.2625
 21
50.8
 31
0.0
  0
LINE
  5
23B
330
1F
100
AcDbEntity
  8
Crease
 62
     3
420
    65280
370
     5
100
AcDbLine
 10
700.15
 20
309.5625
 30
0.0
 11
700.15
 21
436.5625
 31
0.0
  0
LINE
  5
23C
330
1F
100
AcDbEntity
  8
Thru-cut
 62
     5
420
      255
370
     5
100
AcDbLine
 10
636.5875
 20
434.975
 30
0.0
 11
636.5875
 21
384.175
 31
0.0
  0
LINE
  5
23D
330
1F
100
AcDbEntity
  8
Crease
 62
     3
420
    65280
370
     5
100
AcDbLine
 10
373.0625
 20
519.1125
 30
0.0
 11
417.5125
 21
519.1125
 31
0.0
  0
LINE
  5
23E
330
1F
100
AcDbEntity
  8
Crease
 62
     3
420
    65280
370
     5
100
AcDbLine
 10
84.13749999999999
 20
571.5
 30
0.0
 11
528.6374999999999
 21
571.5
 31
0.0
  0
LINE
  5
23F
330
1F
100
AcDbEntity
  8
Crease
 62
     3
420
    65280
370
     5
100
AcDbLine
 10
309.5625
 20
577.85
 30
0.0
 11
411.1625
 21
577.85
 31
0.0
  0
LINE
  5
240
330
1F
100
AcDbEntity
  8
Thru-cut
 62
     5
420
      255
370
     5
100
AcDbLine
 10
373.0625
 20
628.65
 30
0.0
 11
411.1625
 21
628.65
 31
0.0
  0
LINE
  5
241
330
1F
100
AcDbEntity
  8
Thru-cut
 62
     5
420
      255
370
     5
100
AcDbLine
 10
133.0386080289532
 20
633.4124999999999
 30
0.0
 11
155.8863919710467
 21
633.4124999999999
 31
0.0
  0
LINE
  5
242
330
1F
100
AcDbEntity
  8
Crease
 62
     3
420
    65280
370
     5
100
AcDbLine
 10
88.89999999999999
 20
577.85
 30
0.0
 11
195.2625
 21
577.85
 31
0.0
  0
LINE
  5
243
330
1F
100
AcDbEntity
  8
Crease
 62
     3
420
    65280
370
     5
100
AcDbLine
 10
806.5124999999999
 20
309.5625
 30
0.0
 11
806.5124999999999
 21
309.5625
 31
0.0
  0
LINE
  5
244
330
1F
100
AcDbEntity
  8
Crease
 62
     3
420
    65280
370
     5
100
AcDbLine
 10
806.5124999999999
 20
309.5625
 30
0.0
 11
806.5124999999999
 21
309.5625
 31
0.0
  0
LINE
  5
245
330
1F
100
AcDbEntity
  8
Crease
 62
     3
420
    65280
370
     5
100
AcDbLine
 10
912.8749999999999
 20
309.5625
 30
0.0
 11
912.8749999999999
 21
309.5625
 31
0.0
  0
LINE
  5
246
330
1F
100
AcDbEntity
  8
Perf-cut|000~999-090
 62
   151
420
 11452415
370
    25
100
AcDbLine
 10
698.5625
 20
441.325
 30
0.0
 11
649.3499999999999
 21
441.325
 31
0.0
  0
LINE
  5
247
330
1F
100
AcDbEntity
  8
Thru-cut
 62
     5
420
      255
370
     5
100
AcDbLine
 10
674.75
 20
303.2125
 30
0.0
 11
730.3125
 21
303.2125
 31
0.0
  0
LINE
  5
248
330
1F
100
AcDbEntity
  8
Crease
 62
     3
420
    65280
370
     5
100
AcDbLine
 10
33.3375
 20
111.125
 30
0.0
 11
33.3375
 21
517.525
 31
0.0
  0
LINE
  5
249
330
1F
100
AcDbEntity
  8
Crease
 62
     3
420
    65280
370
     5
100
AcDbLine
 10
85.725
 20
384.175
 30
0.0
 11
85.725
 21
384.175
 31
0.0
  0
LINE
  5
24A
330
1F
100
AcDbEntity
  8
Perf-cut|000~999-090
 62
   151
420
 11452415
370
    25
100
AcDbLine
 10
698.5625
 20
38.09999999999999
 30
0.0
 11
649.3499999999999
 21
38.09999999999999
 31
0.0
  0
LINE
  5
24B
330
1F
100
AcDbEntity
  8
Crease
 62
     3
420
    65280
370
     5
100
AcDbLine
 10
585.7875
 20
384.175
 30
0.0
 11
585.7875
 21
384.175
 31
0.0
  0
LINE
  5
24C
330
1F
100
AcDbEntity
  8
Crease
 62
     3
420
    65280
370
     5
100
AcDbLine
 10
527.05
 20
384.175
 30
0.0
 11
527.05
 21
384.175
 31
0.0
  0
LINE
  5
24D
330
1F
100
AcDbEntity
  8
Crease
 62
     3
420
    65280
370
     5
100
AcDbLine
 10
26.9875
 20
384.175
 30
0.0
 11
26.9875
 21
384.175
 31
0.0
  0
LINE
  5
24E
330
1F
100
AcDbEntity
  8
Crease
 62
     3
420
    65280
370
     5
100
AcDbLine
 10
579.4375
 20
111.125
 30
0.0
 11
579.4375
 21
517.525
 31
0.0
  0
LINE
  5
24F
330
1F
100
AcDbEntity
  8
Thru-cut
 62
     5
420
      255
370
     5
100
AcDbLine
 10
649.3499999999999
 20
479.425
 30
0.0
 11
698.5625
 21
479.425
 31
0.0
  0
LINE
  5
250
330
1F
100
AcDbEntity
  8
Crease
 62
     3
420
    65280
370
     5
100
AcDbLine
 10
811.275
 20
303.2125
 30
0.0
 11
811.275
 21
176.2125
 31
0.0
  0
LINE
  5
251
330
1F
100
AcDbEntity
  8
Crease
 62
     3
420
    65280
370
     5
100
AcDbLine
 10
806.5124999999999
 20
176.2125
 30
0.0
 11
806.5124999999999
 21
303.2125
 31
0.0
  0
LINE
  5
252
330
1F
100
AcDbEntity
  8
Thru-cut
 62
     5
420
      255
370
     5
100
AcDbLine
 10
976.4375000000028
 20
252.4125
 30
0.0
 11
976.4375000000028
 21
150.8125
 31
0.0
  0
LINE
  5
253
330
1F
100
AcDbEntity
  8
Crease
 62
     3
420
    65280
370
     5
100
AcDbLine
 10
811.275
 20
436.5625
 30
0.0
 11
811.275
 21
309.5625
 31
0.0
  0
LINE
  5
254
330
1F
100
AcDbEntity
  8
Crease
 62
     3
420
    65280
370
     5
100
AcDbLine
 10
806.5124999999999
 20
309.5625
 30
0.0
 11
806.5124999999999
 21
436.5625
 31
0.0
  0
LINE
  5
255
330
1F
100
AcDbEntity
  8
Crease
 62
     3
420
    65280
370
     5
100
AcDbLine
 10
704.9124999999999
 20
436.5625
 30
0.0
 11
704.9124999999999
 21
309.5625
 31
0.0
  0
LINE
  5
256
330
1F
100
AcDbEntity
  8
Crease
 62
     3
420
    65280
370
     5
100
AcDbLine
 10
700.15
 20
309.5625
 30
0.0
 11
700.15
 21
309.5625
 31
0.0
  0
LINE
  5
257
330
1F
100
AcDbEntity
  8
Crease
 62
     3
420
    65280
370
     5
100
AcDbLine
 10
1138.362500000003
 20
468.3125
 30
0.0
 11
1138.362500000003
 21
42.8625
 31
0.0
  0
LINE
  5
258
330
1F
100
AcDbEntity
  8
Crease
 62
     3
420
    65280
370
     5
100
AcDbLine
 10
1133.600000000003
 20
42.8625
 30
0.0
 11
1133.600000000003
 21
468.3125
 31
0.0
  0
LINE
  5
259
330
1F
100
AcDbEntity
  8
Crease
 62
     3
420
    65280
370
     5
100
AcDbLine
 10
1027.237500000003
 20
42.8625
 30
0.0
 11
1027.237500000003
 21
468.3125
 31
0.0
  0
LINE
  5
25A
330
1F
100
AcDbEntity
  8
Crease
 62
     3
420
    65280
370
     5
100
AcDbLine
 10
1032.000000000003
 20
468.3125
 30
0.0
 11
1032.000000000003
 21
42.8625
 31
0.0
  0
LINE
  5
25B
330
1F
100
AcDbEntity
  8
Thru-cut
 62
     5
420
      255
370
     5
100
AcDbLine
 10
1001.837500000003
 20
150.8125
 30
0.0
 11
976.4375000000028
 21
150.8125
 31
0.0
  0
ENDSEC
  0
SECTION
  2
OBJECTS
  0
DICTIONARY
  5
C
330
0
100
AcDbDictionary
281
     1
  3
ACAD_GROUP
350
D
  3
ACAD_LAYOUT
350
1A
  3
ACAD_MLEADERSTYLE
350
25D
  3
ACAD_MLINESTYLE
350
17
  3
ACAD_PLOTSETTINGS
350
19
  3
ACAD_PLOTSTYLENAME
350
E
  3
ACAD_TABLESTYLE
350
25C
  3
ACAD_VISUALSTYLE
350
2A
  0
DICTIONARY
  5
D
102
{ACAD_REACTORS
330
C
102
}
330
C
100
AcDbDictionary
281
     1
  0
DICTIONARY
  5
1A
102
{ACAD_REACTORS
330
C
102
}
330
C
100
AcDbDictionary
281
     1
  3
Layout1
350
1E
  3
Layout2
350
26
  3
Model
350
22
  0
DICTIONARY
  5
25D
102
{ACAD_REACTORS
330
C
102
}
330
C
100
AcDbDictionary
281
     1
  0
DICTIONARY
  5
17
102
{ACAD_REACTORS
330
C
102
}
330
C
100
AcDbDictionary
281
     1
  3
Standard
350
18
  0
DICTIONARY
  5
19
102
{ACAD_REACTORS
330
C
102
}
330
C
100
AcDbDictionary
281
     1
  0
ACDBDICTIONARYWDFLT
  5
E
102
{ACAD_REACTORS
330
C
102
}
330
C
100
AcDbDictionary
281
     1
  3
Normal
350
F
100
AcDbDictionaryWithDefault
340
F
  0
DICTIONARY
  5
25C
102
{ACAD_REACTORS
330
C
102
}
330
C
100
AcDbDictionary
281
     1
  0
DICTIONARY
  5
2A
102
{ACAD_REACTORS
330
C
102
}
330
C
100
AcDbDictionary
281
     1
  3
2dWireframe
350
2F
  3
3D Hidden
350
31
  3
3dWireframe
350
30
  3
Basic
350
32
  3
Brighten
350
36
  3
ColorChange
350
3A
  3
Conceptual
350
34
  3
Dim
350
35
  3
Facepattern
350
39
  3
Flat
350
2B
  3
FlatWithEdges
350
2C
  3
Gouraud
350
2D
  3
GouraudWithEdges
350
2E
  3
Linepattern
350
38
  3
Realistic
350
33
  3
Thicken
350
37
  0
LAYOUT
  5
1E
102
{ACAD_REACTORS
330
1A
102
}
330
1A
100
AcDbPlotSettings
  1

  2
none_device
  4

  6

 40
0.0
 41
0.0
 42
0.0
 43
0.0
 44
0.0
 45
0.0
 46
0.0
 47
0.0
 48
0.0
 49
0.0
140
0.0
141
0.0
142
1.0
143
1.0
 70
   688
 72
     0
 73
     0
 74
     5
  7

 75
    16
 76
     0
 77
     2
 78
   300
147
1.0
148
0.0
149
0.0
100
AcDbLayout
  1
Layout1
 70
     1
 71
     1
 10
0.0
 20
0.0
 11
12.0
 21
9.0
 12
0.0
 22
0.0
 32
0.0
 14
1.000000000000000E+20
 24
1.000000000000000E+20
 34
1.000000000000000E+20
 15
-1.000000000000000E+20
 25
-1.000000000000000E+20
 35
-1.000000000000000E+20
146
0.0
 13
0.0
 23
0.0
 33
0.0
 16
1.0
 26
0.0
 36
0.0
 17
0.0
 27
1.0
 37
0.0
 76
     0
330
1B
  0
LAYOUT
  5
26
102
{ACAD_REACTORS
330
1A
102
}
330
1A
100
AcDbPlotSettings
  1

  2
none_device
  4

  6

 40
0.0
 41
0.0
 42
0.0
 43
0.0
 44
0.0
 45
0.0
 46
0.0
 47
0.0
 48
0.0
 49
0.0
140
0.0
141
0.0
142
1.0
143
1.0
 70
   688
 72
     0
 73
     0
 74
     5
  7

 75
    16
 76
     0
 77
     2
 78
   300
147
1.0
148
0.0
149
0.0
100
AcDbLayout
  1
Layout2
 70
     1
 71
     2
 10
0.0
 20
0.0
 11
0.0
 21
0.0
 12
0.0
 22
0.0
 32
0.0
 14
0.0
 24
0.0
 34
0.0
 15
0.0
 25
0.0
 35
0.0
146
0.0
 13
0.0
 23
0.0
 33
0.0
 16
1.0
 26
0.0
 36
0.0
 17
0.0
 27
1.0
 37
0.0
 76
     0
330
23
  0
LAYOUT
  5
22
102
{ACAD_REACTORS
330
1A
102
}
330
1A
100
AcDbPlotSettings
  1

  2
none_device
  4

  6

 40
0.0
 41
0.0
 42
0.0
 43
0.0
 44
0.0
 45
0.0
 46
0.0
 47
0.0
 48
0.0
 49
0.0
140
0.0
141
0.0
142
1.0
143
1.0
 70
  1712
 72
     0
 73
     0
 74
     0
  7

 75
     0
 76
     0
 77
     2
 78
   300
147
1.0
148
0.0
149
0.0
100
AcDbLayout
  1
Model
 70
     1
 71
     0
 10
0.0
 20
0.0
 11
12.0
 21
9.0
 12
0.0
 22
0.0
 32
0.0
 14
1.000000000000000E+20
 24
1.000000000000000E+20
 34
1.000000000000000E+20
 15
-1.000000000000000E+20
 25
-1.000000000000000E+20
 35
-1.000000000000000E+20
146
0.0
 13
0.0
 23
0.0
 33
0.0
 16
1.0
 26
0.0
 36
0.0
 17
0.0
 27
1.0
 37
0.0
 76
     0
330
1F
331
29
  0
MLINESTYLE
  5
18
102
{ACAD_REACTORS
330
17
102
}
330
17
100
AcDbMlineStyle
  2
Standard
 70
     0
  3

 62
   256
 51
90.0
 52
90.0
 71
     2
 49
0.5
 62
   256
  6
BYLAYER
 49
-0.5
 62
   256
  6
BYLAYER
  0
ACDBPLACEHOLDER
  5
F
102
{ACAD_REACTORS
330
E
102
}
330
E
  0
VISUALSTYLE
  5
2F
102
{ACAD_REACTORS
330
2A
102
}
330
2A
100
AcDbVisualStyle
  2
2dWireframe
 70
     4
 71
     0
 72
     2
 73
     0
 90
        0
 40
-0.6
 41
-30.0
 62
     5
 63
     7
421
 16777215
 74
     1
 91
        4
 64
     7
 65
   257
 75
     1
175
     1
 42
1.0
 92
        0
 66
   257
 43
1.0
 76
     1
 77
     6
 78
     2
 67
     7
 79
     5
170
     0
171
     0
290
     0
174
     0
 93
        1
 44
0.0
173
     0
291
     0
 45
0.0
  0
VISUALSTYLE
  5
31
102
{ACAD_REACTORS
330
2A
102
}
330
2A
100
AcDbVisualStyle
  2
3D Hidden
 70
     6
 71
     1
 72
     2
 73
     2
 90
        0
 40
-0.6
 41
-30.0
 62
     5
 63
     7
421
 16777215
 74
     2
 91
        2
 64
     7
 65
   257
 75
     2
175
     1
 42
40.0
 92
        0
 66
   257
 43
1.0
 76
     1
 77
     6
 78
     2
 67
     7
 79
     3
170
     0
171
     0
290
     0
174
     0
 93
        1
 44
0.0
173
     0
291
     0
 45
0.0
  0
VISUALSTYLE
  5
30
102
{ACAD_REACTORS
330
2A
102
}
330
2A
100
AcDbVisualStyle
  2
3dWireframe
 70
     5
 71
     0
 72
     2
 73
     0
 90
        0
 40
-0.6
 41
-30.0
 62
     5
 63
     7
421
 16777215
 74
     1
 91
        4
 64
     7
 65
   257
 75
     1
175
     1
 42
1.0
 92
        0
 66
   257
 43
1.0
 76
     1
 77
     6
 78
     2
 67
     7
 79
     5
170
     0
171
     0
290
     0
174
     0
 93
        1
 44
0.0
173
     0
291
     0
 45
0.0
  0
VISUALSTYLE
  5
32
102
{ACAD_REACTORS
330
2A
102
}
330
2A
100
AcDbVisualStyle
  2
Basic
 70
     7
 71
     1
 72
     0
 73
     1
 90
        0
 40
-0.6
 41
-30.0
 62
     5
 63
     7
421
 16777215
 74
     0
 91
        4
 64
     7
 65
   257
 75
     1
175
     1
 42
1.0
 92
        8
 66
     7
 43
1.0
 76
     1
 77
     6
 78
     2
 67
     7
 79
     5
170
     0
171
     0
290
     0
174
     0
 93
        1
 44
0.0
173
     0
291
     1
 45
0.0
  0
VISUALSTYLE
  5
36
102
{ACAD_REACTORS
330
2A
102
}
330
2A
100
AcDbVisualStyle
  2
Brighten
 70
    12
 71
     2
 72
     2
 73
     0
 90
        0
 40
-0.6
 41
-30.0
 62
     5
 63
     7
421
 16777215
 74
     1
 91
        4
 64
     7
 65
   257
 75
     1
175
     1
 42
1.0
 92
        8
 66
     7
 43
1.0
 76
     1
 77
     6
 78
     2
 67
     7
 79
     5
170
     0
171
     0
290
     0
174
     0
 93
        1
 44
50.0
173
     0
291
     1
 45
0.0
  0
VISUALSTYLE
  5
3A
102
{ACAD_REACTORS
330
2A
102
}
330
2A
100
AcDbVisualStyle
  2
ColorChange
 70
    16
 71
     2
 72
     2
 73
     3
 90
        0
 40
-0.6
 41
-30.0
 62
     5
 63
     8
421
  8421504
 74
     1
 91
        4
 64
     7
 65
   257
 75
     1
175
     1
 42
1.0
 92
        8
 66
     8
424
  8421504
 43
1.0
 76
     1
 77
     6
 78
     2
 67
     7
 79
     5
170
     0
171
     0
290
     0
174
     0
 93
        1
 44
0.0
173
     0
291
     1
 45
0.0
  0
VISUALSTYLE
  5
34
102
{ACAD_REACTORS
330
2A
102
}
330
2A
100
AcDbVisualStyle
  2
Conceptual
 70
     9
 71
     3
 72
     2
 73
     0
 90
        0
 40
-0.6
 41
-30.0
 62
     5
 63
     7
421
 16777215
 74
     2
 91
        2
 64
     7
 65
   257
 75
     1
175
     1
 42
40.0
 92
        8
 66
     7
 43
1.0
 76
     1
 77
     6
 78
     2
 67
     7
 79
     3
170
     0
171
     0
290
     0
174
     0
 93
        1
 44
0.0
173
     0
291
     0
 45
0.0
  0
VISUALSTYLE
  5
35
102
{ACAD_REACTORS
330
2A
102
}
330
2A
100
AcDbVisualStyle
  2
Dim
 70
    11
 71
     2
 72
     2
 73
     0
 90
        0
 40
-0.6
 41
-30.0
 62
     5
 63
     7
421
 16777215
 74
     1
 91
        4
 64
     7
 65
   257
 75
     1
175
     1
 42
1.0
 92
        8
 66
     7
 43
1.0
 76
     1
 77
     6
 78
     2
 67
     7
 79
     5
170
     0
171
     0
290
     0
174
     0
 93
        1
 44
-50.0
173
     0
291
     1
 45
0.0
  0
VISUALSTYLE
  5
39
102
{ACAD_REACTORS
330
2A
102
}
330
2A
100
AcDbVisualStyle
  2
Facepattern
 70
    15
 71
     2
 72
     2
 73
     0
 90
        0
 40
-0.6
 41
-30.0
 62
     5
 63
     7
421
 16777215
 74
     1
 91
        4
 64
     7
 65
   257
 75
     1
175
     1
 42
1.0
 92
        8
 66
     7
 43
1.0
 76
     1
 77
     6
 78
     2
 67
     7
 79
     5
170
     0
171
     0
290
     0
174
     0
 93
        1
 44
0.0
173
     0
291
     1
 45
0.0
  0
VISUALSTYLE
  5
2B
102
{ACAD_REACTORS
330
2A
102
}
330
2A
100
AcDbVisualStyle
  2
Flat
 70
     0
 71
     2
 72
     1
 73
     1
 90
        2
 40
-0.6
 41
30.0
 62
     5
 63
     7
421
 16777215
 74
     0
 91
        4
 64
     7
 65
   257
 75
     1
175
     1
 42
1.0
 92
        8
 66
     7
 43
1.0
 76
     1
 77
     6
 78
     2
 67
     7
 79
     5
170
     0
171
     0
290
     0
174
     0
 93
       13
 44
0.0
173
     0
291
     1
 45
0.0
  0
VISUALSTYLE
  5
2C
102
{ACAD_REACTORS
330
2A
102
}
330
2A
100
AcDbVisualStyle
  2
FlatWithEdges
 70
     1
 71
     2
 72
     1
 73
     1
 90
        2
 40
-0.6
 41
30.0
 62
     5
 63
     7
421
 16777215
 74
     1
 91
        4
 64
     7
 65
   257
 75
     1
175
     1
 42
1.0
 92
        0
 66
   257
 43
1.0
 76
     1
 77
     6
 78
     2
 67
     7
 79
     5
170
     0
171
     0
290
     0
174
     0
 93
       13
 44
0.0
173
     0
291
     1
 45
0.0
  0
VISUALSTYLE
  5
2D
102
{ACAD_REACTORS
330
2A
102
}
330
2A
100
AcDbVisualStyle
  2
Gouraud
 70
     2
 71
     2
 72
     2
 73
     1
 90
        2
 40
-0.6
 41
30.0
 62
     5
 63
     7
421
 16777215
 74
     0
 91
        4
 64
     7
 65
   257
 75
     1
175
     1
 42
1.0
 92
        0
 66
     7
 43
1.0
 76
     1
 77
     6
 78
     2
 67
     7
 79
     5
170
     0
171
     0
290
     0
174
     0
 93
       13
 44
0.0
173
     0
291
     1
 45
0.0
  0
VISUALSTYLE
  5
2E
102
{ACAD_REACTORS
330
2A
102
}
330
2A
100
AcDbVisualStyle
  2
GouraudWithEdges
 70
     3
 71
     2
 72
     2
 73
     1
 90
        2
 40
-0.6
 41
30.0
 62
     5
 63
     7
421
 16777215
 74
     1
 91
        4
 64
     7
 65
   257
 75
     1
175
     1
 42
1.0
 92
        0
 66
   257
 43
1.0
 76
     1
 77
     6
 78
     2
 67
     7
 79
     5
170
     0
171
     0
290
     0
174
     0
 93
       13
 44
0.0
173
     0
291
     1
 45
0.0
  0
VISUALSTYLE
  5
38
102
{ACAD_REACTORS
330
2A
102
}
330
2A
100
AcDbVisualStyle
  2
Linepattern
 70
    14
 71
     2
 72
     2
 73
     0
 90
        0
 40
-0.6
 41
-30.0
 62
     5
 63
     7
421
 16777215
 74
     1
 91
        4
 64
     7
 65
   257
 75
     7
175
     7
 42
1.0
 92
        8
 66
     7
 43
1.0
 76
     1
 77
     6
 78
     2
 67
     7
 79
     5
170
     0
171
     0
290
     0
174
     0
 93
        1
 44
0.0
173
     0
291
     1
 45
0.0
  0
VISUALSTYLE
  5
33
102
{ACAD_REACTORS
330
2A
102
}
330
2A
100
AcDbVisualStyle
  2
Realistic
 70
     8
 71
     2
 72
     2
 73
     0
 90
        0
 40
-0.6
 41
-30.0
 62
     5
 63
     7
421
 16777215
 74
     1
 91
        0
 64
     7
 65
   257
 75
     1
175
     1
 42
1.0
 92
        8
 66
     8
424
  7895160
 43
1.0
 76
     1
 77
     6
 78
     2
 67
     7
 79
     5
170
     0
171
     0
290
     0
174
     0
 93
       13
 44
0.0
173
     0
291
     0
 45
0.0
  0
VISUALSTYLE
  5
37
102
{ACAD_REACTORS
330
2A
102
}
330
2A
100
AcDbVisualStyle
  2
Thicken
 70
    13
 71
     2
 72
     2
 73
     0
 90
        0
 40
-0.6
 41
-30.0
 62
     5
 63
     7
421
 16777215
 74
     1
 91
        4
 64
     7
 65
   257
 75
     1
175
     1
 42
1.0
 92
       12
 66
     7
 43
1.0
 76
     1
 77
     6
 78
     2
 67
     7
 79
     5
170
     0
171
     0
290
     0
174
     0
 93
        1
 44
0.0
173
     0
291
     1
 45
0.0
  0
ENDSEC
  0
EOF
