  0
SECTION
  2
HEADER
  9
$ACADVER
  1
AC1014
  9
$ACADMAINTVER
 70
     9
  9
$DWGCODEPAGE
  3
ANSI_1252
  9
$INSBASE
 10
0.0
 20
0.0
 30
0.0
  9
$EXTMIN
 10
1.000000000000000E+20
 20
1.000000000000000E+20
 30
1.000000000000000E+20
  9
$EXTMAX
 10
-1.000000000000000E+20
 20
-1.000000000000000E+20
 30
-1.000000000000000E+20
  9
$LIMMIN
 10
0.0
 20
0.0
  9
$LIMMAX
 10
12.0
 20
9.0
  9
$ORTHOMODE
 70
     0
  9
$REGENMODE
 70
     1
  9
$FILLMODE
 70
     1
  9
$QTEXTMODE
 70
     0
  9
$MIRRTEXT
 70
     1
  9
$DRAGMODE
 70
     2
  9
$LTSCALE
 40
1.0
  9
$OSMODE
 70
    37
  9
$ATTMODE
 70
     1
  9
$TEXTSIZE
 40
0.2
  9
$TRACEWID
 40
0.05
  9
$TEXTSTYLE
  7
STANDARD
  9
$CLAYER
  8
0
  9
$CELTYPE
  6
BYLAYER
  9
$CECOLOR
 62
   256
  9
$CELTSCALE
 40
1.0
  9
$DELOBJ
 70
     1
  9
$DISPSILH
 70
     0
  9
$DIMSCALE
 40
1.0
  9
$DIMASZ
 40
0.18
  9
$DIMEXO
 40
0.0625
  9
$DIMDLI
 40
0.38
  9
$DIMRND
 40
0.0
  9
$DIMDLE
 40
0.0
  9
$DIMEXE
 40
0.18
  9
$DIMTP
 40
0.0
  9
$DIMTM
 40
0.0
  9
$DIMTXT
 40
0.18
  9
$DIMCEN
 40
0.09
  9
$DIMTSZ
 40
0.0
  9
$DIMTOL
 70
     0
  9
$DIMLIM
 70
     0
  9
$DIMTIH
 70
     1
  9
$DIMTOH
 70
     1
  9
$DIMSE1
 70
     0
  9
$DIMSE2
 70
     0
  9
$DIMTAD
 70
     0
  9
$DIMZIN
 70
     0
  9
$DIMBLK
  1

  9
$DIMASO
 70
     1
  9
$DIMSHO
 70
     1
  9
$DIMPOST
  1

  9
$DIMAPOST
  1

  9
$DIMALT
 70
     0
  9
$DIMALTD
 70
     2
  9
$DIMALTF
 40
25.4
  9
$DIMLFAC
 40
1.0
  9
$DIMTOFL
 70
     0
  9
$DIMTVP
 40
0.0
  9
$DIMTIX
 70
     0
  9
$DIMSOXD
 70
     0
  9
$DIMSAH
 70
     0
  9
$DIMBLK1
  1

  9
$DIMBLK2
  1

  9
$DIMSTYLE
  2
STANDARD
  9
$DIMCLRD
 70
     0
  9
$DIMCLRE
 70
     0
  9
$DIMCLRT
 70
     0
  9
$DIMTFAC
 40
1.0
  9
$DIMGAP
 40
0.09
  9
$DIMJUST
 70
     0
  9
$DIMSD1
 70
     0
  9
$DIMSD2
 70
     0
  9
$DIMTOLJ
 70
     1
  9
$DIMTZIN
 70
     0
  9
$DIMALTZ
 70
     0
  9
$DIMALTTZ
 70
     0
  9
$DIMFIT
 70
     3
  9
$DIMUPT
 70
     0
  9
$DIMUNIT
 70
     2
  9
$DIMDEC
 70
     4
  9
$DIMTDEC
 70
     4
  9
$DIMALTU
 70
     2
  9
$DIMALTTD
 70
     2
  9
$DIMTXSTY
  7
STANDARD
  9
$DIMAUNIT
 70
     0
  9
$LUNITS
 70
     2
  9
$LUPREC
 70
     4
  9
$SKETCHINC
 40
0.1
  9
$FILLETRAD
 40
0.5
  9
$AUNITS
 70
     0
  9
$AUPREC
 70
     0
  9
$MENU
  1
.
  9
$ELEVATION
 40
0.0
  9
$PELEVATION
 40
0.0
  9
$THICKNESS
 40
0.0
  9
$LIMCHECK
 70
     0
  9
$CHAMFERA
 40
0.5
  9
$CHAMFERB
 40
0.5
  9
$CHAMFERC
 40
1.0
  9
$CHAMFERD
 40
0.0
  9
$SKPOLY
 70
     0
  9
$TDCREATE
 40
2460067.67196493
  9
$TDUPDATE
 40
2460067.671964942
  9
$TDINDWG
 40
0.0000000116
  9
$TDUSRTIMER
 40
0.0000000116
  9
$USRTIMER
 70
     1
  9
$ANGBASE
 50
0.0
  9
$ANGDIR
 70
     0
  9
$PDMODE
 70
     0
  9
$PDSIZE
 40
0.0
  9
$PLINEWID
 40
0.0
  9
$COORDS
 70
     1
  9
$SPLFRAME
 70
     0
  9
$SPLINETYPE
 70
     6
  9
$SPLINESEGS
 70
     8
  9
$ATTDIA
 70
     0
  9
$ATTREQ
 70
     1
  9
$HANDLING
 70
     1
  9
$HANDSEED
  5
3D6
  9
$SURFTAB1
 70
     6
  9
$SURFTAB2
 70
     6
  9
$SURFTYPE
 70
     6
  9
$SURFU
 70
     6
  9
$SURFV
 70
     6
  9
$UCSNAME
  2

  9
$UCSORG
 10
0.0
 20
0.0
 30
0.0
  9
$UCSXDIR
 10
1.0
 20
0.0
 30
0.0
  9
$UCSYDIR
 10
0.0
 20
1.0
 30
0.0
  9
$PUCSNAME
  2

  9
$PUCSORG
 10
0.0
 20
0.0
 30
0.0
  9
$PUCSXDIR
 10
1.0
 20
0.0
 30
0.0
  9
$PUCSYDIR
 10
0.0
 20
1.0
 30
0.0
  9
$USERI1
 70
     0
  9
$USERI2
 70
     0
  9
$USERI3
 70
     0
  9
$USERI4
 70
     0
  9
$USERI5
 70
     0
  9
$USERR1
 40
0.0
  9
$USERR2
 40
0.0
  9
$USERR3
 40
0.0
  9
$USERR4
 40
0.0
  9
$USERR5
 40
0.0
  9
$WORLDVIEW
 70
     1
  9
$SHADEDGE
 70
     3
  9
$SHADEDIF
 70
    70
  9
$TILEMODE
 70
     1
  9
$MAXACTVP
 70
    64
  9
$PINSBASE
 10
0.0
 20
0.0
 30
0.0
  9
$PLIMCHECK
 70
     0
  9
$PEXTMIN
 10
1.000000000000000E+20
 20
1.000000000000000E+20
 30
1.000000000000000E+20
  9
$PEXTMAX
 10
-1.000000000000000E+20
 20
-1.000000000000000E+20
 30
-1.000000000000000E+20
  9
$PLIMMIN
 10
0.0
 20
0.0
  9
$PLIMMAX
 10
12.0
 20
9.0
  9
$UNITMODE
 70
     0
  9
$VISRETAIN
 70
     1
  9
$PLINEGEN
 70
     0
  9
$PSLTSCALE
 70
     1
  9
$TREEDEPTH
 70
  3020
  9
$PICKSTYLE
 70
     1
  9
$CMLSTYLE
  2
STANDARD
  9
$CMLJUST
 70
     0
  9
$CMLSCALE
 40
1.0
  9
$PROXYGRAPHICS
 70
     1
  9
$MEASUREMENT
 70
     0
  0
ENDSEC
  0
SECTION
  2
CLASSES
  0
CLASS
  1
ACDBDICTIONARYWDFLT
  2
AcDbDictionaryWithDefault
  3
ObjectDBX Classes
 90
        0
280
     0
281
     0
  0
CLASS
  1
VISUALSTYLE
  2
AcDbVisualStyle
  3
ObjectDBX Classes
 90
     4095
280
     0
281
     0
  0
CLASS
  1
XRECORD
  2
AcDbXrecord
  3
AutoCAD 2000
 90
        0
280
     0
281
     0
  0
CLASS
  1
LWPOLYLINE
  2
AcDbPolyline
  3
AutoCAD 2000
 90
        0
280
     0
281
     1
  0
CLASS
  1
HATCH
  2
AcDbHatch
  3
AutoCAD 2000
 90
        0
280
     0
281
     1
  0
CLASS
  1
ACDBPLACEHOLDER
  2
AcDbPlaceHolder
  3
ObjectDBX Classes
 90
        0
280
     0
281
     0
  0
CLASS
  1
LAYOUT
  2
AcDbLayout
  3
ObjectDBX Classes
 90
        0
280
     0
281
     0
  0
ENDSEC
  0
SECTION
  2
TABLES
  0
TABLE
  2
VPORT
  5
8
330
0
100
AcDbSymbolTable
 70
     1
  0
VPORT
  5
29
330
8
100
AcDbSymbolTableRecord
100
AcDbViewportTableRecord
  2
*ACTIVE
 70
     0
 10
0.0
 20
0.0
 11
1.0
 21
1.0
 12
10.42990654205607
 22
4.5
 13
0.0
 23
0.0
 14
0.5
 24
0.5
 15
0.5
 25
0.5
 16
0.0
 26
0.0
 36
1.0
 17
0.0
 27
0.0
 37
0.0
 40
9.0
 41
1.972972972850329
 42
50.0
 43
0.0
 44
0.0
 50
0.0
 51
0.0
 71
     0
 72
   100
 73
     1
 74
     3
 75
     0
 76
     0
 77
     0
 78
     0
  0
ENDTAB
  0
TABLE
  2
LTYPE
  5
5
330
0
100
AcDbSymbolTable
 70
    11
  0
LTYPE
  5
14
330
5
100
AcDbSymbolTableRecord
100
AcDbLinetypeTableRecord
  2
BYBLOCK
 70
     0
  3

 72
    65
 73
     0
 40
0.0
  0
LTYPE
  5
15
330
5
100
AcDbSymbolTableRecord
100
AcDbLinetypeTableRecord
  2
BYLAYER
 70
     0
  3

 72
    65
 73
     0
 40
0.0
  0
LTYPE
  5
16
330
5
100
AcDbSymbolTableRecord
100
AcDbLinetypeTableRecord
  2
CONTINUOUS
 70
     0
  3
Solid line
 72
    65
 73
     0
 40
0.0
  0
LTYPE
  5
60
330
5
100
AcDbSymbolTableRecord
100
AcDbLinetypeTableRecord
  2
STITCH_G
 70
     0
  3
Graphite's line style                   
 72
    65
 73
     8
 40
25.18000000715256
 49
1.0
 74
     0
 49
-0.0450000017881393
 74
     0
 49
8.0
 74
     0
 49
-0.0450000017881393
 74
     0
 49
8.0
 74
     0
 49
-0.0450000017881393
 74
     0
 49
8.0
 74
     0
 49
-0.0450000017881393
 74
     0
  0
LTYPE
  5
61
330
5
100
AcDbSymbolTableRecord
100
AcDbLinetypeTableRecord
  2
CUTTING_G
 70
     0
  3
Graphite's line style                   
 72
    65
 73
    12
 40
52.27000001072884
 49
2.0
 74
     0
 49
-0.0450000017881393
 74
     0
 49
10.0
 74
     0
 49
-0.0450000017881393
 74
     0
 49
10.0
 74
     0
 49
-0.0450000017881393
 74
     0
 49
10.0
 74
     0
 49
-0.0450000017881393
 74
     0
 49
10.0
 74
     0
 49
-0.0450000017881393
 74
     0
 49
10.0
 74
     0
 49
-0.0450000017881393
 74
     0
  0
LTYPE
  5
62
330
5
100
AcDbSymbolTableRecord
100
AcDbLinetypeTableRecord
  2
DIVIDE_G
 70
     0
  3
Graphite's line style                   
 72
    65
 73
     4
 40
0.75
 49
0.0
 74
     0
 49
-0.375
 74
     0
 49
0.375
 74
     0
 49
0.0
 74
     0
  0
LTYPE
  5
63
330
5
100
AcDbSymbolTableRecord
100
AcDbLinetypeTableRecord
  2
BORDER_G
 70
     0
  3
Graphite's line style                   
 72
    65
 73
     4
 40
0.5
 49
0.0
 74
     0
 49
-0.25
 74
     0
 49
0.25
 74
     0
 49
0.0
 74
     0
  0
LTYPE
  5
64
330
5
100
AcDbSymbolTableRecord
100
AcDbLinetypeTableRecord
  2
DASHDOT_G
 70
     0
  3
Graphite's line style                   
 72
    65
 73
     4
 40
0.25
 49
0.0
 74
     0
 49
-0.125
 74
     0
 49
0.125
 74
     0
 49
0.0
 74
     0
  0
LTYPE
  5
65
330
5
100
AcDbSymbolTableRecord
100
AcDbLinetypeTableRecord
  2
PHANTOM_G
 70
     0
  3
Graphite's line style                   
 72
    65
 73
     6
 40
0.9674999937415123
 49
0.5
 74
     0
 49
-0.0724999979138374
 74
     0
 49
0.125
 74
     0
 49
-0.0724999979138374
 74
     0
 49
0.125
 74
     0
 49
-0.0724999979138374
 74
     0
  0
LTYPE
  5
66
330
5
100
AcDbSymbolTableRecord
100
AcDbLinetypeTableRecord
  2
HIDDEN_G
 70
     0
  3
Graphite's line style                   
 72
    65
 73
     2
 40
0.1974999979138374
 49
0.125
 74
     0
 49
-0.0724999979138374
 74
     0
  0
LTYPE
  5
67
330
5
100
AcDbSymbolTableRecord
100
AcDbLinetypeTableRecord
  2
DASHED_G
 70
     0
  3
Graphite's line style                   
 72
    65
 73
     2
 40
0.375
 49
0.25
 74
     0
 49
-0.125
 74
     0
  0
LTYPE
  5
68
330
5
100
AcDbSymbolTableRecord
100
AcDbLinetypeTableRecord
  2
CENTER_G
 70
     0
  3
Graphite's line style                   
 72
    65
 73
     2
 40
0.5724999979138374
 49
0.5
 74
     0
 49
-0.0724999979138374
 74
     0
  0
LTYPE
  5
69
330
5
100
AcDbSymbolTableRecord
100
AcDbLinetypeTableRecord
  2
DOTTED_G
 70
     0
  3

 72
    65
 73
     2
 40
0.1001
 49
0.0001
 74
     0
 49
-0.1
 74
     2
 75
     0
340
0
 46
0.0
 50
0.0
 44
0.0
 45
0.0
  9
.
  0
ENDTAB
  0
TABLE
  2
LAYER
  5
2
330
0
100
AcDbSymbolTable
 70
    13
  0
LAYER
  5
10
330
2
100
AcDbSymbolTableRecord
100
AcDbLayerTableRecord
  2
0
 70
     0
 62
     7
  6
CONTINUOUS
  0
LAYER
  5
6A
330
2
100
AcDbSymbolTableRecord
100
AcDbLayerTableRecord
  2
LAYER1
 70
     0
 62
     7
  6
CONTINUOUS
  0
LAYER
  5
6B
330
2
100
AcDbSymbolTableRecord
100
AcDbLayerTableRecord
  2
CONSTRUCTION
 70
     0
 62
     7
  6
CONTINUOUS
  0
LAYER
  5
6C
330
2
100
AcDbSymbolTableRecord
100
AcDbLayerTableRecord
  2
DIMENSION
 70
     0
 62
     7
  6
CONTINUOUS
  0
LAYER
  5
6D
330
2
100
AcDbSymbolTableRecord
100
AcDbLayerTableRecord
  2
THRU-CUT
 70
     0
 62
     7
  6
CONTINUOUS
  0
LAYER
  5
6E
330
2
100
AcDbSymbolTableRecord
100
AcDbLayerTableRecord
  2
CREASE
 70
     0
 62
     7
  6
CONTINUOUS
  0
LAYER
  5
6F
330
2
100
AcDbSymbolTableRecord
100
AcDbLayerTableRecord
  2
MAINDIMENSIONS
 70
     0
 62
     7
  6
CONTINUOUS
  0
LAYER
  5
70
330
2
100
AcDbSymbolTableRecord
100
AcDbLayerTableRecord
  2
NOMEASURE
 70
     0
 62
     7
  6
CONTINUOUS
  0
LAYER
  5
71
330
2
100
AcDbSymbolTableRecord
100
AcDbLayerTableRecord
  2
PERSERVLAY_T5000_00_99-180
 70
     0
 62
     7
  6
CONTINUOUS
  0
LAYER
  5
72
330
2
100
AcDbSymbolTableRecord
100
AcDbLayerTableRecord
  2
PERF-CUT
 70
     0
 62
     7
  6
CONTINUOUS
  0
LAYER
  5
73
330
2
100
AcDbSymbolTableRecord
100
AcDbLayerTableRecord
  2
PERSERVLAY_T5000_00_99_000
 70
     0
 62
     7
  6
CONTINUOUS
  0
LAYER
  5
74
330
2
100
AcDbSymbolTableRecord
100
AcDbLayerTableRecord
  2
CRSSERVLAY_T5000_00_99_105
 70
     0
 62
     7
  6
CONTINUOUS
  0
LAYER
  5
75
330
2
100
AcDbSymbolTableRecord
100
AcDbLayerTableRecord
  2
PERF|000_999-090
 70
     0
 62
     7
  6
CONTINUOUS
  0
ENDTAB
  0
TABLE
  2
STYLE
  5
3
330
0
100
AcDbSymbolTable
 70
     4
  0
STYLE
  5
11
330
3
100
AcDbSymbolTableRecord
100
AcDbTextStyleTableRecord
  2
STANDARD
 70
     0
 40
0.0
 41
1.0
 50
0.0
 71
     0
 42
0.2
  3
txt
  4

  0
STYLE
  5
3B
330
3
100
AcDbSymbolTableRecord
100
AcDbTextStyleTableRecord
  2
ODASHXSTYLE
 70
     0
 40
0.0
 41
1.0
 50
0.0
 71
     0
 42
0.2
  3
txt
  4

  0
STYLE
  5
3C
330
3
100
AcDbSymbolTableRecord
100
AcDbTextStyleTableRecord
  2
ODATTFSTYLE
 70
     0
 40
0.0
 41
1.0
 50
0.0
 71
     0
 42
0.2
  3
VERDANA.TTF
  4

1001
ACAD
1000
Verdana
1071
       34
  0
STYLE
  5
3D
330
3
100
AcDbSymbolTableRecord
100
AcDbTextStyleTableRecord
  2

 70
     1
 40
0.0
 41
1.0
 50
0.0
 71
     0
 42
22.45
  3
ltypeshp.shx
  4

  0
ENDTAB
  0
TABLE
  2
VIEW
  5
6
330
0
100
AcDbSymbolTable
 70
     0
  0
ENDTAB
  0
TABLE
  2
UCS
  5
7
330
0
100
AcDbSymbolTable
 70
     0
  0
ENDTAB
  0
TABLE
  2
APPID
  5
9
330
0
100
AcDbSymbolTable
 70
     1
  0
APPID
  5
12
330
9
100
AcDbSymbolTableRecord
100
AcDbRegAppTableRecord
  2
ACAD
 70
     0
  0
ENDTAB
  0
TABLE
  2
DIMSTYLE
  5
A
330
0
100
AcDbSymbolTable
 70
     9
  0
DIMSTYLE
105
27
330
A
100
AcDbSymbolTableRecord
100
AcDbDimStyleTableRecord
  2
STANDARD
 70
     0
  3

  4

  5

  6

  7

 40
1.0
 41
0.18
 42
0.0625
 43
0.38
 44
0.18
 45
0.0
 46
0.0
 47
0.0
 48
0.0
140
0.18
141
0.09
142
0.0
143
25.4
144
1.0
145
0.0
146
1.0
147
0.09
 71
     0
 72
     0
 73
     1
 74
     1
 75
     0
 76
     0
 77
     0
 78
     0
170
     0
171
     2
172
     0
173
     0
174
     0
175
     0
176
     0
177
     0
178
     0
270
     2
271
     4
272
     4
273
     2
274
     2
340
11
275
     0
280
     0
281
     0
282
     0
283
     1
284
     0
285
     0
286
     0
287
     3
288
     0
  0
DIMSTYLE
105
3E
330
A
100
AcDbSymbolTableRecord
100
AcDbDimStyleTableRecord
  2
ODADIMSTYLE0
 70
     0
  3

  4

  5

  6

  7

 40
1.0
 41
0.18
 42
0.0625
 43
0.38
 44
0.18
 45
0.0
 46
0.0
 47
0.0
 48
0.0
140
0.18
141
0.09
142
0.0
143
25.4
144
1.0
145
0.0
146
1.0
147
0.09
 71
     0
 72
     0
 73
     1
 74
     1
 75
     0
 76
     0
 77
     0
 78
     0
170
     0
171
     2
172
     0
173
     0
174
     0
175
     0
176
     0
177
     0
178
     0
270
     2
271
     4
272
     4
273
     2
274
     2
340
11
275
     0
280
     0
281
     0
282
     0
283
     1
284
     0
285
     0
286
     0
287
     3
288
     0
  0
DIMSTYLE
105
3F
330
A
100
AcDbSymbolTableRecord
100
AcDbDimStyleTableRecord
  2
ODADIMSTYLE1
 70
     0
  3

  4

  5

  6

  7

 40
1.0
 41
0.18
 42
0.0625
 43
0.38
 44
0.18
 45
0.0
 46
0.0
 47
0.0
 48
0.0
140
0.18
141
0.09
142
0.0
143
25.4
144
1.0
145
0.0
146
1.0
147
0.09
 71
     0
 72
     0
 73
     1
 74
     1
 75
     0
 76
     0
 77
     0
 78
     0
170
     0
171
     2
172
     0
173
     0
174
     0
175
     0
176
     0
177
     0
178
     0
270
     2
271
     4
272
     4
273
     2
274
     2
340
11
275
     0
280
     0
281
     0
282
     0
283
     1
284
     0
285
     0
286
     0
287
     3
288
     0
  0
DIMSTYLE
105
40
330
A
100
AcDbSymbolTableRecord
100
AcDbDimStyleTableRecord
  2
ODADIMSTYLE2
 70
     0
  3

  4

  5
CLOSEDBLANK
  6

  7

 40
1.0
 41
0.18
 42
0.0625
 43
0.38
 44
0.18
 45
0.0
 46
0.0
 47
0.0
 48
0.0
140
0.18
141
0.09
142
0.0
143
25.4
144
1.0
145
0.0
146
1.0
147
0.09
 71
     0
 72
     0
 73
     1
 74
     1
 75
     0
 76
     0
 77
     0
 78
     0
170
     0
171
     2
172
     0
173
     0
174
     0
175
     0
176
     0
177
     0
178
     0
270
     2
271
     4
272
     4
273
     2
274
     2
340
11
275
     0
280
     0
281
     0
282
     0
283
     1
284
     0
285
     0
286
     0
287
     3
288
     0
  0
DIMSTYLE
105
47
330
A
100
AcDbSymbolTableRecord
100
AcDbDimStyleTableRecord
  2
ODADIMSTYLE3
 70
     0
  3

  4

  5
NONE
  6

  7

 40
1.0
 41
0.18
 42
0.0625
 43
0.38
 44
0.18
 45
0.0
 46
0.0
 47
0.0
 48
0.0
140
0.18
141
0.09
142
0.0
143
25.4
144
1.0
145
0.0
146
1.0
147
0.09
 71
     0
 72
     0
 73
     1
 74
     1
 75
     0
 76
     0
 77
     0
 78
     0
170
     0
171
     2
172
     0
173
     0
174
     0
175
     0
176
     0
177
     0
178
     0
270
     2
271
     4
272
     4
273
     2
274
     2
340
11
275
     0
280
     0
281
     0
282
     0
283
     1
284
     0
285
     0
286
     0
287
     3
288
     0
  0
DIMSTYLE
105
4B
330
A
100
AcDbSymbolTableRecord
100
AcDbDimStyleTableRecord
  2
ODADIMSTYLE4
 70
     0
  3

  4

  5
OBLIQUE
  6

  7

 40
1.0
 41
0.18
 42
0.0625
 43
0.38
 44
0.18
 45
0.0
 46
0.0
 47
0.0
 48
0.0
140
0.18
141
0.09
142
0.0
143
25.4
144
1.0
145
0.0
146
1.0
147
0.09
 71
     0
 72
     0
 73
     1
 74
     1
 75
     0
 76
     0
 77
     0
 78
     0
170
     0
171
     2
172
     0
173
     0
174
     0
175
     0
176
     0
177
     0
178
     0
270
     2
271
     4
272
     4
273
     2
274
     2
340
11
275
     0
280
     0
281
     0
282
     0
283
     1
284
     0
285
     0
286
     0
287
     3
288
     0
  0
DIMSTYLE
105
50
330
A
100
AcDbSymbolTableRecord
100
AcDbDimStyleTableRecord
  2
ODADIMSTYLE5
 70
     0
  3

  4

  5

  6

  7

 40
1.0
 41
0.18
 42
0.0625
 43
0.38
 44
0.18
 45
0.0
 46
0.0
 47
0.0
 48
0.0
140
0.18
141
0.09
142
0.0
143
25.4
144
1.0
145
0.0
146
1.0
147
0.09
 71
     0
 72
     0
 73
     1
 74
     1
 75
     0
 76
     0
 77
     0
 78
     0
170
     0
171
     2
172
     0
173
     0
174
     0
175
     0
176
     0
177
     0
178
     0
270
     2
271
     4
272
     4
273
     2
274
     2
340
11
275
     0
280
     0
281
     0
282
     0
283
     1
284
     0
285
     0
286
     0
287
     3
288
     0
  0
DIMSTYLE
105
51
330
A
100
AcDbSymbolTableRecord
100
AcDbDimStyleTableRecord
  2
ODADIMSTYLE6
 70
     0
  3

  4

  5
DOT
  6

  7

 40
1.0
 41
0.18
 42
0.0625
 43
0.38
 44
0.18
 45
0.0
 46
0.0
 47
0.0
 48
0.0
140
0.18
141
0.09
142
0.0
143
25.4
144
1.0
145
0.0
146
1.0
147
0.09
 71
     0
 72
     0
 73
     1
 74
     1
 75
     0
 76
     0
 77
     0
 78
     0
170
     0
171
     2
172
     0
173
     0
174
     0
175
     0
176
     0
177
     0
178
     0
270
     2
271
     4
272
     4
273
     2
274
     2
340
11
275
     0
280
     0
281
     0
282
     0
283
     1
284
     0
285
     0
286
     0
287
     3
288
     0
  0
DIMSTYLE
105
5A
330
A
100
AcDbSymbolTableRecord
100
AcDbDimStyleTableRecord
  2
ODADIMSTYLE7
 70
     0
  3

  4

  5
DOTBLANK
  6

  7

 40
1.0
 41
0.18
 42
0.0625
 43
0.38
 44
0.18
 45
0.0
 46
0.0
 47
0.0
 48
0.0
140
0.18
141
0.09
142
0.0
143
25.4
144
1.0
145
0.0
146
1.0
147
0.09
 71
     0
 72
     0
 73
     1
 74
     1
 75
     0
 76
     0
 77
     0
 78
     0
170
     0
171
     2
172
     0
173
     0
174
     0
175
     0
176
     0
177
     0
178
     0
270
     2
271
     4
272
     4
273
     2
274
     2
340
11
275
     0
280
     0
281
     0
282
     0
283
     1
284
     0
285
     0
286
     0
287
     3
288
     0
  0
ENDTAB
  0
TABLE
  2
BLOCK_RECORD
  5
1
330
0
100
AcDbSymbolTable
 70
     6
  0
BLOCK_RECORD
  5
1F
330
1
100
AcDbSymbolTableRecord
100
AcDbBlockTableRecord
  2
*MODEL_SPACE
  0
BLOCK_RECORD
  5
1B
330
1
100
AcDbSymbolTableRecord
100
AcDbBlockTableRecord
  2
*PAPER_SPACE
  0
BLOCK_RECORD
  5
41
330
1
100
AcDbSymbolTableRecord
100
AcDbBlockTableRecord
  2
_CLOSEDBLANK
  0
BLOCK_RECORD
  5
48
330
1
100
AcDbSymbolTableRecord
100
AcDbBlockTableRecord
  2
_NONE
  0
BLOCK_RECORD
  5
4C
330
1
100
AcDbSymbolTableRecord
100
AcDbBlockTableRecord
  2
_OBLIQUE
  0
BLOCK_RECORD
  5
52
330
1
100
AcDbSymbolTableRecord
100
AcDbBlockTableRecord
  2
_DOT
  0
BLOCK_RECORD
  5
5B
330
1
100
AcDbSymbolTableRecord
100
AcDbBlockTableRecord
  2
_DOTBLANK
  0
ENDTAB
  0
ENDSEC
  0
SECTION
  2
BLOCKS
  0
BLOCK
  5
20
330
1F
100
AcDbEntity
  8
0
100
AcDbBlockBegin
  2
*MODEL_SPACE
 70
     0
 10
0.0
 20
0.0
 30
0.0
  3
*MODEL_SPACE
  1

  0
ENDBLK
  5
21
330
1F
100
AcDbEntity
  8
0
100
AcDbBlockEnd
  0
BLOCK
  5
1C
330
1B
100
AcDbEntity
 67
     1
  8
0
100
AcDbBlockBegin
  2
*PAPER_SPACE
 70
     0
 10
0.0
 20
0.0
 30
0.0
  3
*PAPER_SPACE
  1

  0
ENDBLK
  5
1D
330
1B
100
AcDbEntity
 67
     1
  8
0
100
AcDbBlockEnd
  0
BLOCK
  5
42
330
41
100
AcDbEntity
  8
0
100
AcDbBlockBegin
  2
_CLOSEDBLANK
 70
     0
 10
0.0
 20
0.0
 30
0.0
  3
_CLOSEDBLANK
  1

  0
LINE
  5
44
330
41
100
AcDbEntity
  8
0
  6
BYBLOCK
 62
     0
100
AcDbLine
 10
-1.0
 20
0.166667
 30
0.0
 11
0.0
 21
0.0
 31
0.0
  0
LINE
  5
45
330
41
100
AcDbEntity
  8
0
  6
BYBLOCK
 62
     0
100
AcDbLine
 10
0.0
 20
0.0
 30
0.0
 11
-1.0
 21
-0.166667
 31
0.0
  0
LINE
  5
46
330
41
100
AcDbEntity
  8
0
  6
BYBLOCK
 62
     0
100
AcDbLine
 10
-1.0
 20
0.166667
 30
0.0
 11
-1.0
 21
-0.166667
 31
0.0
  0
ENDBLK
  5
43
330
41
100
AcDbEntity
  8
0
100
AcDbBlockEnd
  0
BLOCK
  5
49
330
48
100
AcDbEntity
  8
0
100
AcDbBlockBegin
  2
_NONE
 70
     0
 10
0.0
 20
0.0
 30
0.0
  3
_NONE
  1

  0
ENDBLK
  5
4A
330
48
100
AcDbEntity
  8
0
100
AcDbBlockEnd
  0
BLOCK
  5
4D
330
4C
100
AcDbEntity
  8
0
100
AcDbBlockBegin
  2
_OBLIQUE
 70
     0
 10
0.0
 20
0.0
 30
0.0
  3
_OBLIQUE
  1

  0
LINE
  5
4F
330
4C
100
AcDbEntity
  8
0
  6
BYBLOCK
 62
     0
100
AcDbLine
 10
-0.5
 20
-0.5
 30
0.0
 11
0.5
 21
0.5
 31
0.0
  0
ENDBLK
  5
4E
330
4C
100
AcDbEntity
  8
0
100
AcDbBlockEnd
  0
BLOCK
  5
53
330
52
100
AcDbEntity
  8
0
100
AcDbBlockBegin
  2
_DOT
 70
     0
 10
0.0
 20
0.0
 30
0.0
  3
_DOT
  1

  0
POLYLINE
  5
55
330
52
100
AcDbEntity
  8
0
  6
BYBLOCK
 62
     0
100
AcDb2dPolyline
 66
     1
 10
0.0
 20
0.0
 30
0.0
 70
     1
 40
0.5
 41
0.5
  0
VERTEX
  5
57
330
55
100
AcDbEntity
  8
0
  6
BYBLOCK
 62
     0
100
AcDbVertex
100
AcDb2dVertex
 10
-0.25
 20
0.0
 30
0.0
 42
1.0
  0
VERTEX
  5
58
330
55
100
AcDbEntity
  8
0
  6
BYBLOCK
 62
     0
100
AcDbVertex
100
AcDb2dVertex
 10
0.25
 20
0.0
 30
0.0
 42
1.0
  0
SEQEND
  5
59
330
55
100
AcDbEntity
  8
0
  6
BYBLOCK
 62
     0
  0
LINE
  5
56
330
52
100
AcDbEntity
  8
0
  6
BYBLOCK
 62
     0
100
AcDbLine
 10
-0.5
 20
0.0
 30
0.0
 11
-1.0
 21
0.0
 31
0.0
  0
ENDBLK
  5
54
330
52
100
AcDbEntity
  8
0
100
AcDbBlockEnd
  0
BLOCK
  5
5C
330
5B
100
AcDbEntity
  8
0
100
AcDbBlockBegin
  2
_DOTBLANK
 70
     0
 10
0.0
 20
0.0
 30
0.0
  3
_DOTBLANK
  1

  0
CIRCLE
  5
5E
330
5B
100
AcDbEntity
  8
0
  6
BYBLOCK
 62
     0
100
AcDbCircle
 10
0.0
 20
0.0
 30
0.0
 40
0.5
  0
LINE
  5
5F
330
5B
100
AcDbEntity
  8
0
  6
BYBLOCK
 62
     0
100
AcDbLine
 10
-0.5
 20
0.0
 30
0.0
 11
-1.0
 21
0.0
 31
0.0
  0
ENDBLK
  5
5D
330
5B
100
AcDbEntity
  8
0
100
AcDbBlockEnd
  0
ENDSEC
  0
SECTION
  2
ENTITIES
  0
LINE
  5
76
330
1F
100
AcDbEntity
  8
THRU-CUT
 62
     5
100
AcDbLine
 10
154.1299212598412
 20
0.0
 30
0.0
 11
154.1299212598412
 21
1.6875
 31
0.0
  0
LINE
  5
77
330
1F
100
AcDbEntity
  8
THRU-CUT
 62
     5
100
AcDbLine
 10
133.7549212598412
 20
0.0
 30
0.0
 11
143.6299212598412
 21
0.0
 31
0.0
  0
LINE
  5
78
330
1F
100
AcDbEntity
  8
THRU-CUT
 62
     5
100
AcDbLine
 10
143.6299212598412
 20
0.0
 30
0.0
 11
143.6299212598412
 21
1.6875
 31
0.0
  0
LINE
  5
79
330
1F
100
AcDbEntity
  8
THRU-CUT
 62
     5
100
AcDbLine
 10
143.9424212598412
 20
0.0
 30
0.0
 11
143.9424212598412
 21
1.6875
 31
0.0
  0
LINE
  5
7A
330
1F
100
AcDbEntity
  8
THRU-CUT
 62
     5
100
AcDbLine
 10
138.6924212598412
 20
0.0
 30
0.0
 11
138.6924212598412
 21
9.6875
 31
0.0
  0
LINE
  5
7B
330
1F
100
AcDbEntity
  8
THRU-CUT
 62
     5
100
AcDbLine
 10
82.18996062992126
 20
0.0
 30
0.0
 11
82.18996062992126
 21
1.6875
 31
0.0
  0
LINE
  5
7C
330
1F
100
AcDbEntity
  8
THRU-CUT
 62
     5
100
AcDbLine
 10
92.68996062992126
 20
0.0
 30
0.0
 11
92.68996062992126
 21
1.6875
 31
0.0
  0
LINE
  5
7D
330
1F
100
AcDbEntity
  8
THRU-CUT
 62
     5
100
AcDbLine
 10
92.37746062992126
 20
0.0
 30
0.0
 11
92.37746062992126
 21
1.6875
 31
0.0
  0
LINE
  5
7E
330
1F
100
AcDbEntity
  8
THRU-CUT
 62
     5
100
AcDbLine
 10
52.88725952641916
 20
-0.1875
 30
0.0
 11
50.98774047358084
 21
-0.1875
 31
0.0
  0
LINE
  5
7F
330
1F
100
AcDbEntity
  8
THRU-CUT
 62
     5
100
AcDbLine
 10
44.6875
 20
0.0
 30
0.0
 11
44.63725952641916
 21
-0.1875
 31
0.0
  0
LINE
  5
80
330
1F
100
AcDbEntity
  8
THRU-CUT
 62
     5
100
AcDbLine
 10
1.0625
 20
59.875
 30
0.0
 11
-3.9375
 21
59.875
 31
0.0
  0
LINE
  5
81
330
1F
100
AcDbEntity
  8
THRU-CUT
 62
     5
100
AcDbLine
 10
0.0
 20
65.5625
 30
0.0
 11
0.0
 21
70.5
 31
0.0
  0
LINE
  5
82
330
1F
100
AcDbEntity
  8
THRU-CUT
 62
     5
100
AcDbLine
 10
6.5
 20
65.5625
 30
0.0
 11
0.0
 21
65.5625
 31
0.0
  0
LINE
  5
83
330
1F
100
AcDbEntity
  8
THRU-CUT
 62
     5
100
AcDbLine
 10
1.0625
 20
51.625
 30
0.0
 11
-3.9375
 21
51.625
 31
0.0
  0
LINE
  5
84
330
1F
100
AcDbEntity
  8
THRU-CUT
 62
     5
100
AcDbLine
 10
1.0625
 20
43.375
 30
0.0
 11
-3.9375
 21
43.375
 31
0.0
  0
LINE
  5
85
330
1F
100
AcDbEntity
  8
THRU-CUT
 62
     5
100
AcDbLine
 10
1.31125
 20
51.875
 30
0.0
 11
-3.9375
 21
51.875
 31
0.0
  0
LINE
  5
86
330
1F
100
AcDbEntity
  8
THRU-CUT
 62
     5
100
AcDbLine
 10
1.0625
 20
26.875
 30
0.0
 11
-3.9375
 21
26.875
 31
0.0
  0
LINE
  5
87
330
1F
100
AcDbEntity
  8
THRU-CUT
 62
     5
100
AcDbLine
 10
1.0625
 20
35.125
 30
0.0
 11
-3.9375
 21
35.125
 31
0.0
  0
LINE
  5
88
330
1F
100
AcDbEntity
  8
THRU-CUT
 62
     5
100
AcDbLine
 10
6.5
 20
4.9375
 30
0.0
 11
0.0
 21
4.9375
 31
0.0
  0
LINE
  5
89
330
1F
100
AcDbEntity
  8
THRU-CUT
 62
     5
100
AcDbLine
 10
1.31125
 20
35.375
 30
0.0
 11
-3.9375
 21
35.375
 31
0.0
  0
LINE
  5
8A
330
1F
100
AcDbEntity
  8
THRU-CUT
 62
     5
100
AcDbLine
 10
1.0625
 20
18.625
 30
0.0
 11
-3.9375
 21
18.625
 31
0.0
  0
LINE
  5
8B
330
1F
100
AcDbEntity
  8
THRU-CUT
 62
     5
100
AcDbLine
 10
1.0625
 20
10.625
 30
0.0
 11
-3.9375
 21
10.625
 31
0.0
  0
LINE
  5
8C
330
1F
100
AcDbEntity
  8
THRU-CUT
 62
     5
100
AcDbLine
 10
0.0
 20
4.9375
 30
0.0
 11
0.0
 21
0.0
 31
0.0
  0
LINE
  5
8D
330
1F
100
AcDbEntity
  8
THRU-CUT
 62
     5
100
AcDbLine
 10
153.8174212598412
 20
0.0
 30
0.0
 11
153.8174212598412
 21
1.6875
 31
0.0
  0
LINE
  5
8E
330
1F
100
AcDbEntity
  8
THRU-CUT
 62
     5
100
AcDbLine
 10
148.8799212598412
 20
0.0
 30
0.0
 11
148.8799212598412
 21
9.6875
 31
0.0
  0
LINE
  5
8F
330
1F
100
AcDbEntity
  8
THRU-CUT
 62
     5
100
AcDbLine
 10
169.2549212598412
 20
0.0
 30
0.0
 11
169.2549212598412
 21
9.6875
 31
0.0
  0
LINE
  5
90
330
1F
100
AcDbEntity
  8
THRU-CUT
 62
     5
100
AcDbLine
 10
169.2549212598412
 20
0.0
 30
0.0
 11
164.3174212598412
 21
0.0
 31
0.0
  0
LINE
  5
91
330
1F
100
AcDbEntity
  8
THRU-CUT
 62
     5
100
AcDbLine
 10
164.3174212598412
 20
0.0
 30
0.0
 11
164.3174212598412
 21
1.6875
 31
0.0
  0
LINE
  5
92
330
1F
100
AcDbEntity
  8
THRU-CUT
 62
     5
100
AcDbLine
 10
164.0049212598412
 20
0.0
 30
0.0
 11
164.0049212598412
 21
1.6875
 31
0.0
  0
LINE
  5
93
330
1F
100
AcDbEntity
  8
THRU-CUT
 62
     5
100
AcDbLine
 10
159.0674212598412
 20
0.0
 30
0.0
 11
159.0674212598412
 21
9.6875
 31
0.0
  0
LINE
  5
94
330
1F
100
AcDbEntity
  8
THRU-CUT
 62
     5
100
AcDbLine
 10
39.4375
 20
5.0
 30
0.0
 11
39.4375
 21
0.0
 31
0.0
  0
LINE
  5
95
330
1F
100
AcDbEntity
  8
THRU-CUT
 62
     5
100
AcDbLine
 10
23.1875
 20
5.24875
 30
0.0
 11
23.1875
 21
0.0
 31
0.0
  0
LINE
  5
96
330
1F
100
AcDbEntity
  8
THRU-CUT
 62
     5
100
AcDbLine
 10
14.6875
 20
5.0
 30
0.0
 11
14.6875
 21
0.0
 31
0.0
  0
LINE
  5
97
330
1F
100
AcDbEntity
  8
PERF|000_999-090
 62
   151
100
AcDbLine
 10
6.5
 20
0.0
 30
0.0
 11
6.5
 21
4.9375
 31
0.0
  0
LINE
  5
98
330
1F
100
AcDbEntity
  8
THRU-CUT
 62
     5
100
AcDbLine
 10
28.1875
 20
0.0
 30
0.0
 11
28.13725952641916
 21
-0.1875
 31
0.0
  0
LINE
  5
99
330
1F
100
AcDbEntity
  8
THRU-CUT
 62
     5
100
AcDbLine
 10
128.5049212598412
 20
0.0
 30
0.0
 11
128.5049212598412
 21
9.6875
 31
0.0
  0
LINE
  5
9A
330
1F
100
AcDbEntity
  8
THRU-CUT
 62
     5
100
AcDbLine
 10
123.2549212598412
 20
0.0
 30
0.0
 11
123.2549212598412
 21
1.6875
 31
0.0
  0
LINE
  5
9B
330
1F
100
AcDbEntity
  8
THRU-CUT
 62
     5
100
AcDbLine
 10
123.5674212598412
 20
0.0
 30
0.0
 11
123.5674212598412
 21
1.6875
 31
0.0
  0
LINE
  5
9C
330
1F
100
AcDbEntity
  8
THRU-CUT
 62
     5
100
AcDbLine
 10
133.7549212598412
 20
0.0
 30
0.0
 11
133.7549212598412
 21
1.6875
 31
0.0
  0
LINE
  5
9D
330
1F
100
AcDbEntity
  8
THRU-CUT
 62
     5
100
AcDbLine
 10
133.4424212598412
 20
0.0
 30
0.0
 11
133.4424212598412
 21
1.6875
 31
0.0
  0
LINE
  5
9E
330
1F
100
AcDbEntity
  8
THRU-CUT
 62
     5
100
AcDbLine
 10
133.4424212598412
 20
0.0
 30
0.0
 11
123.5674212598412
 21
0.0
 31
0.0
  0
LINE
  5
9F
330
1F
100
AcDbEntity
  8
THRU-CUT
 62
     5
100
AcDbLine
 10
143.9424212598412
 20
0.0
 30
0.0
 11
153.8174212598412
 21
0.0
 31
0.0
  0
LINE
  5
A0
330
1F
100
AcDbEntity
  8
THRU-CUT
 62
     5
100
AcDbLine
 10
164.0049212598412
 20
0.0
 30
0.0
 11
154.1299212598412
 21
0.0
 31
0.0
  0
LINE
  5
A1
330
1F
100
AcDbEntity
  8
THRU-CUT
 62
     5
100
AcDbLine
 10
72.31496062992126
 20
0.0
 30
0.0
 11
82.18996062992126
 21
0.0
 31
0.0
  0
LINE
  5
A2
330
1F
100
AcDbEntity
  8
THRU-CUT
 62
     5
100
AcDbLine
 10
92.37746062992126
 20
0.0
 30
0.0
 11
82.50246062992126
 21
0.0
 31
0.0
  0
LINE
  5
A3
330
1F
100
AcDbEntity
  8
THRU-CUT
 62
     5
100
AcDbLine
 10
82.50246062992126
 20
0.0
 30
0.0
 11
82.50246062992126
 21
1.6875
 31
0.0
  0
LINE
  5
A4
330
1F
100
AcDbEntity
  8
THRU-CUT
 62
     5
100
AcDbLine
 10
102.8774606299213
 20
0.0
 30
0.0
 11
112.7524606299213
 21
0.0
 31
0.0
  0
LINE
  5
A5
330
1F
100
AcDbEntity
  8
THRU-CUT
 62
     5
100
AcDbLine
 10
118.0024606299213
 20
0.0
 30
0.0
 11
113.0649606299213
 21
0.0
 31
0.0
  0
LINE
  5
A6
330
1F
100
AcDbEntity
  8
THRU-CUT
 62
     5
100
AcDbLine
 10
102.5649606299213
 20
0.0
 30
0.0
 11
102.5649606299213
 21
1.6875
 31
0.0
  0
LINE
  5
A7
330
1F
100
AcDbEntity
  8
THRU-CUT
 62
     5
100
AcDbLine
 10
72.31496062992126
 20
0.0
 30
0.0
 11
72.31496062992126
 21
1.6875
 31
0.0
  0
LINE
  5
A8
330
1F
100
AcDbEntity
  8
THRU-CUT
 62
     5
100
AcDbLine
 10
102.8774606299213
 20
0.0
 30
0.0
 11
102.8774606299213
 21
1.6875
 31
0.0
  0
LINE
  5
A9
330
1F
100
AcDbEntity
  8
THRU-CUT
 62
     5
100
AcDbLine
 10
112.7524606299213
 20
0.0
 30
0.0
 11
112.7524606299213
 21
1.6875
 31
0.0
  0
LINE
  5
AA
330
1F
100
AcDbEntity
  8
THRU-CUT
 62
     5
100
AcDbLine
 10
113.0649606299213
 20
0.0
 30
0.0
 11
113.0649606299213
 21
1.6875
 31
0.0
  0
LINE
  5
AB
330
1F
100
AcDbEntity
  8
THRU-CUT
 62
     5
100
AcDbLine
 10
118.3174212598412
 20
9.6875
 30
0.0
 11
118.3174212598412
 21
0.0
 31
0.0
  0
LINE
  5
AC
330
1F
100
AcDbEntity
  8
THRU-CUT
 62
     5
100
AcDbLine
 10
72.00246062992126
 20
0.0
 30
0.0
 11
72.00246062992126
 21
1.6875
 31
0.0
  0
LINE
  5
AD
330
1F
100
AcDbEntity
  8
THRU-CUT
 62
     5
100
AcDbLine
 10
67.06496062992126
 20
0.0
 30
0.0
 11
72.00246062992126
 21
0.0
 31
0.0
  0
LINE
  5
AE
330
1F
100
AcDbEntity
  8
THRU-CUT
 62
     5
100
AcDbLine
 10
-4.125
 20
54.92524047358084
 30
0.0
 11
-3.9375
 21
54.875
 31
0.0
  0
LINE
  5
AF
330
1F
100
AcDbEntity
  8
THRU-CUT
 62
     5
100
AcDbLine
 10
-4.125
 20
56.82475952641916
 30
0.0
 11
-3.9375
 21
56.875
 31
0.0
  0
LINE
  5
B0
330
1F
100
AcDbEntity
  8
THRU-CUT
 62
     5
100
AcDbLine
 10
-3.9375
 20
59.875
 30
0.0
 11
-3.9375
 21
56.875
 31
0.0
  0
LINE
  5
B1
330
1F
100
AcDbEntity
  8
THRU-CUT
 62
     5
100
AcDbLine
 10
-4.125
 20
56.82475952641916
 30
0.0
 11
-4.125
 21
54.92524047358084
 31
0.0
  0
LINE
  5
B2
330
1F
100
AcDbEntity
  8
THRU-CUT
 62
     5
100
AcDbLine
 10
39.6875
 20
0.0
 30
0.0
 11
42.6875
 21
0.0
 31
0.0
  0
LINE
  5
B3
330
1F
100
AcDbEntity
  8
THRU-CUT
 62
     5
100
AcDbLine
 10
50.98774047358084
 20
-0.1875
 30
0.0
 11
50.9375
 21
0.0
 31
0.0
  0
LINE
  5
B4
330
1F
100
AcDbEntity
  8
PERF|000_999-090
 62
   151
100
AcDbLine
 10
56.125
 20
0.0
 30
0.0
 11
56.125
 21
4.9375
 31
0.0
  0
LINE
  5
B5
330
1F
100
AcDbEntity
  8
THRU-CUT
 62
     5
100
AcDbLine
 10
62.625
 20
4.9375
 30
0.0
 11
62.625
 21
0.0
 31
0.0
  0
LINE
  5
B6
330
1F
100
AcDbEntity
  8
THRU-CUT
 62
     5
100
AcDbLine
 10
62.625
 20
0.0
 30
0.0
 11
52.9375
 21
0.0
 31
0.0
  0
LINE
  5
B7
330
1F
100
AcDbEntity
  8
THRU-CUT
 62
     5
100
AcDbLine
 10
52.88725952641916
 20
-0.1875
 30
0.0
 11
52.9375
 21
0.0
 31
0.0
  0
LINE
  5
B8
330
1F
100
AcDbEntity
  8
THRU-CUT
 62
     5
100
AcDbLine
 10
31.4375
 20
0.0
 30
0.0
 11
34.4375
 21
0.0
 31
0.0
  0
LINE
  5
B9
330
1F
100
AcDbEntity
  8
THRU-CUT
 62
     5
100
AcDbLine
 10
31.1875
 20
5.0
 30
0.0
 11
31.1875
 21
0.0
 31
0.0
  0
LINE
  5
BA
330
1F
100
AcDbEntity
  8
THRU-CUT
 62
     5
100
AcDbLine
 10
36.4375
 20
0.0
 30
0.0
 11
39.4375
 21
0.0
 31
0.0
  0
LINE
  5
BB
330
1F
100
AcDbEntity
  8
THRU-CUT
 62
     5
100
AcDbLine
 10
36.4375
 20
0.0
 30
0.0
 11
36.38725952641916
 21
-0.1875
 31
0.0
  0
LINE
  5
BC
330
1F
100
AcDbEntity
  8
THRU-CUT
 62
     5
100
AcDbLine
 10
34.4375
 20
0.0
 30
0.0
 11
34.48774047358084
 21
-0.1875
 31
0.0
  0
LINE
  5
BD
330
1F
100
AcDbEntity
  8
THRU-CUT
 62
     5
100
AcDbLine
 10
19.9375
 20
0.0
 30
0.0
 11
22.9375
 21
0.0
 31
0.0
  0
LINE
  5
BE
330
1F
100
AcDbEntity
  8
THRU-CUT
 62
     5
100
AcDbLine
 10
17.9375
 20
0.0
 30
0.0
 11
17.98774047358084
 21
-0.1875
 31
0.0
  0
LINE
  5
BF
330
1F
100
AcDbEntity
  8
THRU-CUT
 62
     5
100
AcDbLine
 10
19.9375
 20
0.0
 30
0.0
 11
19.88725952641916
 21
-0.1875
 31
0.0
  0
LINE
  5
C0
330
1F
100
AcDbEntity
  8
THRU-CUT
 62
     5
100
AcDbLine
 10
47.9375
 20
5.24875
 30
0.0
 11
47.9375
 21
0.0
 31
0.0
  0
LINE
  5
C1
330
1F
100
AcDbEntity
  8
THRU-CUT
 62
     5
100
AcDbLine
 10
47.6875
 20
5.0
 30
0.0
 11
47.6875
 21
0.0
 31
0.0
  0
LINE
  5
C2
330
1F
100
AcDbEntity
  8
THRU-CUT
 62
     5
100
AcDbLine
 10
34.48774047358084
 20
-0.1875
 30
0.0
 11
36.38725952641916
 21
-0.1875
 31
0.0
  0
LINE
  5
C3
330
1F
100
AcDbEntity
  8
THRU-CUT
 62
     5
100
AcDbLine
 10
42.73774047358084
 20
-0.1875
 30
0.0
 11
44.63725952641916
 21
-0.1875
 31
0.0
  0
LINE
  5
C4
330
1F
100
AcDbEntity
  8
THRU-CUT
 62
     5
100
AcDbLine
 10
42.6875
 20
0.0
 30
0.0
 11
42.73774047358084
 21
-0.1875
 31
0.0
  0
LINE
  5
C5
330
1F
100
AcDbEntity
  8
THRU-CUT
 62
     5
100
AcDbLine
 10
44.6875
 20
0.0
 30
0.0
 11
47.6875
 21
0.0
 31
0.0
  0
LINE
  5
C6
330
1F
100
AcDbEntity
  8
THRU-CUT
 62
     5
100
AcDbLine
 10
-3.9375
 20
15.625
 30
0.0
 11
-4.125
 21
15.57475952641916
 31
0.0
  0
LINE
  5
C7
330
1F
100
AcDbEntity
  8
THRU-CUT
 62
     5
100
AcDbLine
 10
-3.9375
 20
10.625
 30
0.0
 11
-3.9375
 21
13.625
 31
0.0
  0
LINE
  5
C8
330
1F
100
AcDbEntity
  8
THRU-CUT
 62
     5
100
AcDbLine
 10
-3.9375
 20
13.625
 30
0.0
 11
-4.125
 21
13.67524047358083
 31
0.0
  0
LINE
  5
C9
330
1F
100
AcDbEntity
  8
THRU-CUT
 62
     5
100
AcDbLine
 10
-3.9375
 20
18.875
 30
0.0
 11
-3.9375
 21
21.875
 31
0.0
  0
LINE
  5
CA
330
1F
100
AcDbEntity
  8
THRU-CUT
 62
     5
100
AcDbLine
 10
-3.9375
 20
54.875
 30
0.0
 11
-3.9375
 21
51.875
 31
0.0
  0
LINE
  5
CB
330
1F
100
AcDbEntity
  8
THRU-CUT
 62
     5
100
AcDbLine
 10
14.9375
 20
0.0
 30
0.0
 11
17.9375
 21
0.0
 31
0.0
  0
LINE
  5
CC
330
1F
100
AcDbEntity
  8
THRU-CUT
 62
     5
100
AcDbLine
 10
23.1875
 20
0.0
 30
0.0
 11
26.1875
 21
0.0
 31
0.0
  0
LINE
  5
CD
330
1F
100
AcDbEntity
  8
THRU-CUT
 62
     5
100
AcDbLine
 10
9.737740473580832
 20
-0.1875
 30
0.0
 11
11.63725952641916
 21
-0.1875
 31
0.0
  0
LINE
  5
CE
330
1F
100
AcDbEntity
  8
THRU-CUT
 62
     5
100
AcDbLine
 10
11.6875
 20
0.0
 30
0.0
 11
14.6875
 21
0.0
 31
0.0
  0
LINE
  5
CF
330
1F
100
AcDbEntity
  8
THRU-CUT
 62
     5
100
AcDbLine
 10
11.6875
 20
0.0
 30
0.0
 11
11.63725952641916
 21
-0.1875
 31
0.0
  0
LINE
  5
D0
330
1F
100
AcDbEntity
  8
THRU-CUT
 62
     5
100
AcDbLine
 10
26.1875
 20
0.0
 30
0.0
 11
26.23774047358083
 21
-0.1875
 31
0.0
  0
LINE
  5
D1
330
1F
100
AcDbEntity
  8
THRU-CUT
 62
     5
100
AcDbLine
 10
22.9375
 20
5.0
 30
0.0
 11
22.9375
 21
0.0
 31
0.0
  0
LINE
  5
D2
330
1F
100
AcDbEntity
  8
THRU-CUT
 62
     5
100
AcDbLine
 10
26.23774047358083
 20
-0.1875
 30
0.0
 11
28.13725952641916
 21
-0.1875
 31
0.0
  0
LINE
  5
D3
330
1F
100
AcDbEntity
  8
THRU-CUT
 62
     5
100
AcDbLine
 10
17.98774047358084
 20
-0.1875
 30
0.0
 11
19.88725952641916
 21
-0.1875
 31
0.0
  0
LINE
  5
D4
330
1F
100
AcDbEntity
  8
THRU-CUT
 62
     5
100
AcDbLine
 10
102.5649606299213
 20
0.0
 30
0.0
 11
92.68996062992126
 21
0.0
 31
0.0
  0
LINE
  5
D5
330
1F
100
AcDbEntity
  8
THRU-CUT
 62
     5
100
AcDbLine
 10
9.6875
 20
0.0
 30
0.0
 11
9.737740473580832
 21
-0.1875
 31
0.0
  0
LINE
  5
D6
330
1F
100
AcDbEntity
  8
THRU-CUT
 62
     5
100
AcDbLine
 10
0.0
 20
0.0
 30
0.0
 11
9.6875
 21
0.0
 31
0.0
  0
LINE
  5
D7
330
1F
100
AcDbEntity
  8
THRU-CUT
 62
     5
100
AcDbLine
 10
50.9375
 20
0.0
 30
0.0
 11
47.9375
 21
0.0
 31
0.0
  0
LINE
  5
D8
330
1F
100
AcDbEntity
  8
THRU-CUT
 62
     5
100
AcDbLine
 10
97.62746062992126
 20
0.0
 30
0.0
 11
97.62746062992126
 21
52.625
 31
0.0
  0
LINE
  5
D9
330
1F
100
AcDbEntity
  8
THRU-CUT
 62
     5
100
AcDbLine
 10
118.0024606299213
 20
0.0
 30
0.0
 11
118.0024606299213
 21
52.625
 31
0.0
  0
LINE
  5
DA
330
1F
100
AcDbEntity
  8
THRU-CUT
 62
     5
100
AcDbLine
 10
87.43996062992126
 20
0.0
 30
0.0
 11
87.43996062992126
 21
52.625
 31
0.0
  0
LINE
  5
DB
330
1F
100
AcDbEntity
  8
THRU-CUT
 62
     5
100
AcDbLine
 10
118.3174212598412
 20
0.0
 30
0.0
 11
123.2549212598412
 21
0.0
 31
0.0
  0
LINE
  5
DC
330
1F
100
AcDbEntity
  8
THRU-CUT
 62
     5
100
AcDbLine
 10
28.1875
 20
0.0
 30
0.0
 11
31.1875
 21
0.0
 31
0.0
  0
LINE
  5
DD
330
1F
100
AcDbEntity
  8
THRU-CUT
 62
     5
100
AcDbLine
 10
67.06496062992126
 20
52.625
 30
0.0
 11
67.06496062992126
 21
0.0
 31
0.0
  0
LINE
  5
DE
330
1F
100
AcDbEntity
  8
THRU-CUT
 62
     5
100
AcDbLine
 10
107.8149606299213
 20
0.0
 30
0.0
 11
107.8149606299213
 21
52.625
 31
0.0
  0
LINE
  5
DF
330
1F
100
AcDbEntity
  8
THRU-CUT
 62
     5
100
AcDbLine
 10
156.5674212598412
 20
42.6875
 30
0.0
 11
161.5674212598412
 21
42.6875
 31
0.0
  0
LINE
  5
E0
330
1F
100
AcDbEntity
  8
THRU-CUT
 62
     5
100
AcDbLine
 10
156.5674212598412
 20
42.9375
 30
0.0
 11
161.5674212598412
 21
42.9375
 31
0.0
  0
LINE
  5
E1
330
1F
100
AcDbEntity
  8
THRU-CUT
 62
     5
100
AcDbLine
 10
156.5674212598412
 20
42.9375
 30
0.0
 11
156.5674212598412
 21
42.6875
 31
0.0
  0
LINE
  5
E2
330
1F
100
AcDbEntity
  8
THRU-CUT
 62
     5
100
AcDbLine
 10
120.8174212598412
 20
42.6875
 30
0.0
 11
120.8174212598412
 21
42.9375
 31
0.0
  0
LINE
  5
E3
330
1F
100
AcDbEntity
  8
THRU-CUT
 62
     5
100
AcDbLine
 10
159.0674212598412
 20
42.9375
 30
0.0
 11
159.0674212598412
 21
52.625
 31
0.0
  0
LINE
  5
E4
330
1F
100
AcDbEntity
  8
THRU-CUT
 62
     5
100
AcDbLine
 10
-3.9375
 20
40.375
 30
0.0
 11
-3.9375
 21
43.375
 31
0.0
  0
LINE
  5
E5
330
1F
100
AcDbEntity
  8
THRU-CUT
 62
     5
100
AcDbLine
 10
-3.9375
 20
40.375
 30
0.0
 11
-4.125
 21
40.32475952641916
 31
0.0
  0
LINE
  5
E6
330
1F
100
AcDbEntity
  8
THRU-CUT
 62
     5
100
AcDbLine
 10
-3.9375
 20
38.375
 30
0.0
 11
-4.125
 21
38.42524047358083
 31
0.0
  0
LINE
  5
E7
330
1F
100
AcDbEntity
  8
THRU-CUT
 62
     5
100
AcDbLine
 10
-3.9375
 20
48.625
 30
0.0
 11
-4.125
 21
48.57475952641916
 31
0.0
  0
LINE
  5
E8
330
1F
100
AcDbEntity
  8
THRU-CUT
 62
     5
100
AcDbLine
 10
-3.9375
 20
43.625
 30
0.0
 11
-3.9375
 21
46.625
 31
0.0
  0
LINE
  5
E9
330
1F
100
AcDbEntity
  8
THRU-CUT
 62
     5
100
AcDbLine
 10
-3.9375
 20
48.625
 30
0.0
 11
-3.9375
 21
51.625
 31
0.0
  0
LINE
  5
EA
330
1F
100
AcDbEntity
  8
THRU-CUT
 62
     5
100
AcDbLine
 10
-3.9375
 20
46.625
 30
0.0
 11
-4.125
 21
46.67524047358084
 31
0.0
  0
LINE
  5
EB
330
1F
100
AcDbEntity
  8
THRU-CUT
 62
     5
100
AcDbLine
 10
-4.125
 20
46.67524047358084
 30
0.0
 11
-4.125
 21
48.57475952641916
 31
0.0
  0
LINE
  5
EC
330
1F
100
AcDbEntity
  8
THRU-CUT
 62
     5
100
AcDbLine
 10
-4.125
 20
38.42524047358083
 30
0.0
 11
-4.125
 21
40.32475952641916
 31
0.0
  0
LINE
  5
ED
330
1F
100
AcDbEntity
  8
THRU-CUT
 62
     5
100
AcDbLine
 10
-3.9375
 20
30.125
 30
0.0
 11
-4.125
 21
30.17524047358084
 31
0.0
  0
LINE
  5
EE
330
1F
100
AcDbEntity
  8
THRU-CUT
 62
     5
100
AcDbLine
 10
-3.9375
 20
27.125
 30
0.0
 11
-3.9375
 21
30.125
 31
0.0
  0
LINE
  5
EF
330
1F
100
AcDbEntity
  8
THRU-CUT
 62
     5
100
AcDbLine
 10
-3.9375
 20
23.875
 30
0.0
 11
-3.9375
 21
26.875
 31
0.0
  0
LINE
  5
F0
330
1F
100
AcDbEntity
  8
THRU-CUT
 62
     5
100
AcDbLine
 10
-3.9375
 20
21.875
 30
0.0
 11
-4.125
 21
21.92524047358084
 31
0.0
  0
LINE
  5
F1
330
1F
100
AcDbEntity
  8
THRU-CUT
 62
     5
100
AcDbLine
 10
-4.125
 20
30.17524047358084
 30
0.0
 11
-4.125
 21
32.07475952641916
 31
0.0
  0
LINE
  5
F2
330
1F
100
AcDbEntity
  8
THRU-CUT
 62
     5
100
AcDbLine
 10
-3.9375
 20
15.625
 30
0.0
 11
-3.9375
 21
18.625
 31
0.0
  0
LINE
  5
F3
330
1F
100
AcDbEntity
  8
THRU-CUT
 62
     5
100
AcDbLine
 10
-3.9375
 20
23.875
 30
0.0
 11
-4.125
 21
23.82475952641916
 31
0.0
  0
LINE
  5
F4
330
1F
100
AcDbEntity
  8
THRU-CUT
 62
     5
100
AcDbLine
 10
-3.9375
 20
32.125
 30
0.0
 11
-4.125
 21
32.07475952641916
 31
0.0
  0
LINE
  5
F5
330
1F
100
AcDbEntity
  8
THRU-CUT
 62
     5
100
AcDbLine
 10
-4.125
 20
21.92524047358084
 30
0.0
 11
-4.125
 21
23.82475952641916
 31
0.0
  0
LINE
  5
F6
330
1F
100
AcDbEntity
  8
THRU-CUT
 62
     5
100
AcDbLine
 10
-3.9375
 20
32.125
 30
0.0
 11
-3.9375
 21
35.125
 31
0.0
  0
LINE
  5
F7
330
1F
100
AcDbEntity
  8
THRU-CUT
 62
     5
100
AcDbLine
 10
-4.125
 20
13.67524047358083
 30
0.0
 11
-4.125
 21
15.57475952641916
 31
0.0
  0
LINE
  5
F8
330
1F
100
AcDbEntity
  8
PERF|000_999-090
 62
   151
100
AcDbLine
 10
102.5649606299213
 20
51.125
 30
0.0
 11
97.62746062992126
 21
51.125
 31
0.0
  0
LINE
  5
F9
330
1F
100
AcDbEntity
  8
PERF|000_999-090
 62
   151
100
AcDbLine
 10
112.7524606299213
 20
51.125
 30
0.0
 11
107.8149606299213
 21
51.125
 31
0.0
  0
LINE
  5
FA
330
1F
100
AcDbEntity
  8
THRU-CUT
 62
     5
100
AcDbLine
 10
82.50246062992126
 20
52.625
 30
0.0
 11
82.50246062992126
 21
50.9375
 31
0.0
  0
LINE
  5
FB
330
1F
100
AcDbEntity
  8
THRU-CUT
 62
     5
100
AcDbLine
 10
92.37746062992126
 20
52.625
 30
0.0
 11
82.50246062992126
 21
52.625
 31
0.0
  0
LINE
  5
FC
330
1F
100
AcDbEntity
  8
THRU-CUT
 62
     5
100
AcDbLine
 10
82.18996062992126
 20
52.625
 30
0.0
 11
72.31496062992126
 21
52.625
 31
0.0
  0
LINE
  5
FD
330
1F
100
AcDbEntity
  8
THRU-CUT
 62
     5
100
AcDbLine
 10
-3.9375
 20
35.375
 30
0.0
 11
-3.9375
 21
38.375
 31
0.0
  0
LINE
  5
FE
330
1F
100
AcDbEntity
  8
THRU-CUT
 62
     5
100
AcDbLine
 10
133.4424212598412
 20
52.625
 30
0.0
 11
133.4424212598412
 21
50.9375
 31
0.0
  0
LINE
  5
FF
330
1F
100
AcDbEntity
  8
PERF|000_999-090
 62
   151
100
AcDbLine
 10
133.4424212598412
 20
51.125
 30
0.0
 11
128.5049212598412
 21
51.125
 31
0.0
  0
LINE
  5
100
330
1F
100
AcDbEntity
  8
PERF|000_999-090
 62
   151
100
AcDbLine
 10
133.7549212598412
 20
51.125
 30
0.0
 11
138.6924212598412
 21
51.125
 31
0.0
  0
LINE
  5
101
330
1F
100
AcDbEntity
  8
PERF|000_999-090
 62
   151
100
AcDbLine
 10
123.5674212598412
 20
51.125
 30
0.0
 11
128.5049212598412
 21
51.125
 31
0.0
  0
LINE
  5
102
330
1F
100
AcDbEntity
  8
THRU-CUT
 62
     5
100
AcDbLine
 10
169.2549212598412
 20
52.625
 30
0.0
 11
164.3174212598412
 21
52.625
 31
0.0
  0
LINE
  5
103
330
1F
100
AcDbEntity
  8
THRU-CUT
 62
     5
100
AcDbLine
 10
164.0049212598412
 20
52.625
 30
0.0
 11
164.0049212598412
 21
50.9375
 31
0.0
  0
LINE
  5
104
330
1F
100
AcDbEntity
  8
THRU-CUT
 62
     5
100
AcDbLine
 10
154.1299212598412
 20
52.625
 30
0.0
 11
154.1299212598412
 21
50.9375
 31
0.0
  0
LINE
  5
105
330
1F
100
AcDbEntity
  8
THRU-CUT
 62
     5
100
AcDbLine
 10
153.8174212598412
 20
52.625
 30
0.0
 11
153.8174212598412
 21
50.9375
 31
0.0
  0
LINE
  5
106
330
1F
100
AcDbEntity
  8
THRU-CUT
 62
     5
100
AcDbLine
 10
148.8799212598412
 20
42.9375
 30
0.0
 11
148.8799212598412
 21
52.625
 31
0.0
  0
LINE
  5
107
330
1F
100
AcDbEntity
  8
THRU-CUT
 62
     5
100
AcDbLine
 10
169.2549212598412
 20
42.9375
 30
0.0
 11
169.2549212598412
 21
52.625
 31
0.0
  0
LINE
  5
108
330
1F
100
AcDbEntity
  8
THRU-CUT
 62
     5
100
AcDbLine
 10
164.3174212598412
 20
52.625
 30
0.0
 11
164.3174212598412
 21
50.9375
 31
0.0
  0
LINE
  5
109
330
1F
100
AcDbEntity
  8
THRU-CUT
 62
     5
100
AcDbLine
 10
146.3799212598412
 20
42.9375
 30
0.0
 11
146.3799212598412
 21
42.6875
 31
0.0
  0
LINE
  5
10A
330
1F
100
AcDbEntity
  8
THRU-CUT
 62
     5
100
AcDbLine
 10
146.3799212598412
 20
42.9375
 30
0.0
 11
151.3799212598412
 21
42.9375
 31
0.0
  0
LINE
  5
10B
330
1F
100
AcDbEntity
  8
PERF|000_999-090
 62
   151
100
AcDbLine
 10
153.8174212598412
 20
51.125
 30
0.0
 11
148.8799212598412
 21
51.125
 31
0.0
  0
LINE
  5
10C
330
1F
100
AcDbEntity
  8
PERF|000_999-090
 62
   151
100
AcDbLine
 10
154.1299212598412
 20
51.125
 30
0.0
 11
159.0674212598412
 21
51.125
 31
0.0
  0
LINE
  5
10D
330
1F
100
AcDbEntity
  8
PERF|000_999-090
 62
   151
100
AcDbLine
 10
164.0049212598412
 20
51.125
 30
0.0
 11
159.0674212598412
 21
51.125
 31
0.0
  0
LINE
  5
10E
330
1F
100
AcDbEntity
  8
PERF|000_999-090
 62
   151
100
AcDbLine
 10
164.3174212598412
 20
51.125
 30
0.0
 11
169.2549212598412
 21
51.125
 31
0.0
  0
LINE
  5
10F
330
1F
100
AcDbEntity
  8
THRU-CUT
 62
     5
100
AcDbLine
 10
151.3799212598412
 20
42.6875
 30
0.0
 11
151.3799212598412
 21
42.9375
 31
0.0
  0
LINE
  5
110
330
1F
100
AcDbEntity
  8
THRU-CUT
 62
     5
100
AcDbLine
 10
164.0049212598412
 20
50.9375
 30
0.0
 11
164.3174212598412
 21
50.9375
 31
0.0
  0
LINE
  5
111
330
1F
100
AcDbEntity
  8
THRU-CUT
 62
     5
100
AcDbLine
 10
123.2549212598412
 20
50.9375
 30
0.0
 11
123.5674212598412
 21
50.9375
 31
0.0
  0
LINE
  5
112
330
1F
100
AcDbEntity
  8
THRU-CUT
 62
     5
100
AcDbLine
 10
126.0049212598412
 20
42.9375
 30
0.0
 11
126.0049212598412
 21
42.6875
 31
0.0
  0
LINE
  5
113
330
1F
100
AcDbEntity
  8
THRU-CUT
 62
     5
100
AcDbLine
 10
92.68996062992126
 20
52.625
 30
0.0
 11
92.68996062992126
 21
50.9375
 31
0.0
  0
LINE
  5
114
330
1F
100
AcDbEntity
  8
THRU-CUT
 62
     5
100
AcDbLine
 10
72.31496062992126
 20
52.625
 30
0.0
 11
72.31496062992126
 21
50.9375
 31
0.0
  0
LINE
  5
115
330
1F
100
AcDbEntity
  8
THRU-CUT
 62
     5
100
AcDbLine
 10
82.18996062992126
 20
52.625
 30
0.0
 11
82.18996062992126
 21
50.9375
 31
0.0
  0
LINE
  5
116
330
1F
100
AcDbEntity
  8
THRU-CUT
 62
     5
100
AcDbLine
 10
118.0024606299213
 20
52.625
 30
0.0
 11
113.0649606299213
 21
52.625
 31
0.0
  0
LINE
  5
117
330
1F
100
AcDbEntity
  8
THRU-CUT
 62
     5
100
AcDbLine
 10
164.0049212598412
 20
52.625
 30
0.0
 11
154.1299212598412
 21
52.625
 31
0.0
  0
LINE
  5
118
330
1F
100
AcDbEntity
  8
THRU-CUT
 62
     5
100
AcDbLine
 10
143.9424212598412
 20
52.625
 30
0.0
 11
153.8174212598412
 21
52.625
 31
0.0
  0
LINE
  5
119
330
1F
100
AcDbEntity
  8
THRU-CUT
 62
     5
100
AcDbLine
 10
166.7549212598412
 20
42.9375
 30
0.0
 11
169.2549212598412
 21
42.9375
 31
0.0
  0
LINE
  5
11A
330
1F
100
AcDbEntity
  8
THRU-CUT
 62
     5
100
AcDbLine
 10
166.7549212598412
 20
42.6875
 30
0.0
 11
169.2549212598412
 21
42.6875
 31
0.0
  0
LINE
  5
11B
330
1F
100
AcDbEntity
  8
THRU-CUT
 62
     5
100
AcDbLine
 10
166.7549212598412
 20
42.9375
 30
0.0
 11
166.7549212598412
 21
42.6875
 31
0.0
  0
LINE
  5
11C
330
1F
100
AcDbEntity
  8
THRU-CUT
 62
     5
100
AcDbLine
 10
161.5674212598412
 20
42.6875
 30
0.0
 11
161.5674212598412
 21
42.9375
 31
0.0
  0
LINE
  5
11D
330
1F
100
AcDbEntity
  8
THRU-CUT
 62
     5
100
AcDbLine
 10
133.4424212598412
 20
50.9375
 30
0.0
 11
133.7549212598412
 21
50.9375
 31
0.0
  0
LINE
  5
11E
330
1F
100
AcDbEntity
  8
THRU-CUT
 62
     5
100
AcDbLine
 10
131.0049212598412
 20
42.9375
 30
0.0
 11
126.0049212598412
 21
42.9375
 31
0.0
  0
LINE
  5
11F
330
1F
100
AcDbEntity
  8
THRU-CUT
 62
     5
100
AcDbLine
 10
82.18996062992126
 20
50.9375
 30
0.0
 11
82.50246062992126
 21
50.9375
 31
0.0
  0
LINE
  5
120
330
1F
100
AcDbEntity
  8
THRU-CUT
 62
     5
100
AcDbLine
 10
153.8174212598412
 20
50.9375
 30
0.0
 11
154.1299212598412
 21
50.9375
 31
0.0
  0
LINE
  5
121
330
1F
100
AcDbEntity
  8
THRU-CUT
 62
     5
100
AcDbLine
 10
151.3799212598412
 20
42.6875
 30
0.0
 11
146.3799212598412
 21
42.6875
 31
0.0
  0
LINE
  5
122
330
1F
100
AcDbEntity
  8
THRU-CUT
 62
     5
100
AcDbLine
 10
143.6299212598412
 20
52.625
 30
0.0
 11
143.6299212598412
 21
50.9375
 31
0.0
  0
LINE
  5
123
330
1F
100
AcDbEntity
  8
THRU-CUT
 62
     5
100
AcDbLine
 10
143.9424212598412
 20
52.625
 30
0.0
 11
143.9424212598412
 21
50.9375
 31
0.0
  0
LINE
  5
124
330
1F
100
AcDbEntity
  8
THRU-CUT
 62
     5
100
AcDbLine
 10
128.5049212598412
 20
42.9375
 30
0.0
 11
128.5049212598412
 21
52.625
 31
0.0
  0
LINE
  5
125
330
1F
100
AcDbEntity
  8
THRU-CUT
 62
     5
100
AcDbLine
 10
138.6924212598412
 20
42.9375
 30
0.0
 11
138.6924212598412
 21
52.625
 31
0.0
  0
LINE
  5
126
330
1F
100
AcDbEntity
  8
THRU-CUT
 62
     5
100
AcDbLine
 10
123.2549212598412
 20
52.625
 30
0.0
 11
123.2549212598412
 21
50.9375
 31
0.0
  0
LINE
  5
127
330
1F
100
AcDbEntity
  8
THRU-CUT
 62
     5
100
AcDbLine
 10
123.5674212598412
 20
52.625
 30
0.0
 11
123.5674212598412
 21
50.9375
 31
0.0
  0
LINE
  5
128
330
1F
100
AcDbEntity
  8
THRU-CUT
 62
     5
100
AcDbLine
 10
133.7549212598412
 20
52.625
 30
0.0
 11
133.7549212598412
 21
50.9375
 31
0.0
  0
LINE
  5
129
330
1F
100
AcDbEntity
  8
PERF|000_999-090
 62
   151
100
AcDbLine
 10
113.0649606299213
 20
51.125
 30
0.0
 11
118.0024606299213
 21
51.125
 31
0.0
  0
LINE
  5
12A
330
1F
100
AcDbEntity
  8
THRU-CUT
 62
     5
100
AcDbLine
 10
105.3149606299213
 20
42.9375
 30
0.0
 11
105.3149606299213
 21
42.6875
 31
0.0
  0
LINE
  5
12B
330
1F
100
AcDbEntity
  8
THRU-CUT
 62
     5
100
AcDbLine
 10
115.5024606299213
 20
42.9375
 30
0.0
 11
110.3149606299213
 21
42.9375
 31
0.0
  0
LINE
  5
12C
330
1F
100
AcDbEntity
  8
THRU-CUT
 62
     5
100
AcDbLine
 10
110.3149606299213
 20
42.6875
 30
0.0
 11
115.5024606299213
 21
42.6875
 31
0.0
  0
LINE
  5
12D
330
1F
100
AcDbEntity
  8
PERF|000_999-090
 62
   151
100
AcDbLine
 10
102.8774606299213
 20
51.125
 30
0.0
 11
107.8149606299213
 21
51.125
 31
0.0
  0
LINE
  5
12E
330
1F
100
AcDbEntity
  8
THRU-CUT
 62
     5
100
AcDbLine
 10
102.8774606299213
 20
52.625
 30
0.0
 11
112.7524606299213
 21
52.625
 31
0.0
  0
LINE
  5
12F
330
1F
100
AcDbEntity
  8
THRU-CUT
 62
     5
100
AcDbLine
 10
141.1924212598412
 20
42.9375
 30
0.0
 11
136.1924212598412
 21
42.9375
 31
0.0
  0
LINE
  5
130
330
1F
100
AcDbEntity
  8
THRU-CUT
 62
     5
100
AcDbLine
 10
133.7549212598412
 20
52.625
 30
0.0
 11
143.6299212598412
 21
52.625
 31
0.0
  0
LINE
  5
131
330
1F
100
AcDbEntity
  8
PERF|000_999-090
 62
   151
100
AcDbLine
 10
143.6299212598412
 20
51.125
 30
0.0
 11
138.6924212598412
 21
51.125
 31
0.0
  0
LINE
  5
132
330
1F
100
AcDbEntity
  8
THRU-CUT
 62
     5
100
AcDbLine
 10
112.7524606299213
 20
52.625
 30
0.0
 11
112.7524606299213
 21
50.9375
 31
0.0
  0
LINE
  5
133
330
1F
100
AcDbEntity
  8
THRU-CUT
 62
     5
100
AcDbLine
 10
113.0649606299213
 20
52.625
 30
0.0
 11
113.0649606299213
 21
50.9375
 31
0.0
  0
LINE
  5
134
330
1F
100
AcDbEntity
  8
THRU-CUT
 62
     5
100
AcDbLine
 10
102.8774606299213
 20
52.625
 30
0.0
 11
102.8774606299213
 21
50.9375
 31
0.0
  0
LINE
  5
135
330
1F
100
AcDbEntity
  8
THRU-CUT
 62
     5
100
AcDbLine
 10
131.0049212598412
 20
42.6875
 30
0.0
 11
126.0049212598412
 21
42.6875
 31
0.0
  0
LINE
  5
136
330
1F
100
AcDbEntity
  8
THRU-CUT
 62
     5
100
AcDbLine
 10
131.0049212598412
 20
42.6875
 30
0.0
 11
131.0049212598412
 21
42.9375
 31
0.0
  0
LINE
  5
137
330
1F
100
AcDbEntity
  8
THRU-CUT
 62
     5
100
AcDbLine
 10
136.1924212598412
 20
42.6875
 30
0.0
 11
141.1924212598412
 21
42.6875
 31
0.0
  0
LINE
  5
138
330
1F
100
AcDbEntity
  8
THRU-CUT
 62
     5
100
AcDbLine
 10
136.1924212598412
 20
42.9375
 30
0.0
 11
136.1924212598412
 21
42.6875
 31
0.0
  0
LINE
  5
139
330
1F
100
AcDbEntity
  8
THRU-CUT
 62
     5
100
AcDbLine
 10
102.5649606299213
 20
52.625
 30
0.0
 11
102.5649606299213
 21
50.9375
 31
0.0
  0
LINE
  5
13A
330
1F
100
AcDbEntity
  8
THRU-CUT
 62
     5
100
AcDbLine
 10
102.5649606299213
 20
50.9375
 30
0.0
 11
102.8774606299213
 21
50.9375
 31
0.0
  0
LINE
  5
13B
330
1F
100
AcDbEntity
  8
THRU-CUT
 62
     5
100
AcDbLine
 10
115.5024606299213
 20
34.6875
 30
0.0
 11
110.3149606299213
 21
34.6875
 31
0.0
  0
LINE
  5
13C
330
1F
100
AcDbEntity
  8
THRU-CUT
 62
     5
100
AcDbLine
 10
84.93996062992126
 20
34.6875
 30
0.0
 11
79.75246062992126
 21
34.6875
 31
0.0
  0
LINE
  5
13D
330
1F
100
AcDbEntity
  8
THRU-CUT
 62
     5
100
AcDbLine
 10
84.93996062992126
 20
34.6875
 30
0.0
 11
84.93996062992126
 21
34.4375
 31
0.0
  0
LINE
  5
13E
330
1F
100
AcDbEntity
  8
THRU-CUT
 62
     5
100
AcDbLine
 10
79.75246062992126
 20
34.4375
 30
0.0
 11
84.93996062992126
 21
34.4375
 31
0.0
  0
LINE
  5
13F
330
1F
100
AcDbEntity
  8
THRU-CUT
 62
     5
100
AcDbLine
 10
74.75246062992126
 20
34.6875
 30
0.0
 11
74.75246062992126
 21
34.4375
 31
0.0
  0
LINE
  5
140
330
1F
100
AcDbEntity
  8
CREASE
 62
     3
100
AcDbLine
 10
92.43996062992126
 20
34.6875
 30
0.0
 11
92.43996062992126
 21
42.6875
 31
0.0
  0
LINE
  5
141
330
1F
100
AcDbEntity
  8
CREASE
 62
     3
100
AcDbLine
 10
92.62746062992126
 20
42.6875
 30
0.0
 11
92.62746062992126
 21
34.6875
 31
0.0
  0
LINE
  5
142
330
1F
100
AcDbEntity
  8
THRU-CUT
 62
     5
100
AcDbLine
 10
146.3799212598412
 20
26.4375
 30
0.0
 11
146.3799212598412
 21
26.1875
 31
0.0
  0
LINE
  5
143
330
1F
100
AcDbEntity
  8
THRU-CUT
 62
     5
100
AcDbLine
 10
100.1274606299213
 20
42.6875
 30
0.0
 11
100.1274606299213
 21
42.9375
 31
0.0
  0
LINE
  5
144
330
1F
100
AcDbEntity
  8
THRU-CUT
 62
     5
100
AcDbLine
 10
100.1274606299213
 20
42.6875
 30
0.0
 11
105.3149606299213
 21
42.6875
 31
0.0
  0
LINE
  5
145
330
1F
100
AcDbEntity
  8
THRU-CUT
 62
     5
100
AcDbLine
 10
74.75246062992126
 20
42.9375
 30
0.0
 11
74.75246062992126
 21
42.6875
 31
0.0
  0
LINE
  5
146
330
1F
100
AcDbEntity
  8
THRU-CUT
 62
     5
100
AcDbLine
 10
89.93996062992126
 20
34.4375
 30
0.0
 11
89.93996062992126
 21
34.6875
 31
0.0
  0
LINE
  5
147
330
1F
100
AcDbEntity
  8
THRU-CUT
 62
     5
100
AcDbLine
 10
79.75246062992126
 20
34.4375
 30
0.0
 11
79.75246062992126
 21
34.6875
 31
0.0
  0
LINE
  5
148
330
1F
100
AcDbEntity
  8
THRU-CUT
 62
     5
100
AcDbLine
 10
110.3149606299213
 20
34.4375
 30
0.0
 11
115.5024606299213
 21
34.4375
 31
0.0
  0
LINE
  5
149
330
1F
100
AcDbEntity
  8
THRU-CUT
 62
     5
100
AcDbLine
 10
115.5024606299213
 20
34.6875
 30
0.0
 11
115.5024606299213
 21
34.4375
 31
0.0
  0
LINE
  5
14A
330
1F
100
AcDbEntity
  8
THRU-CUT
 62
     5
100
AcDbLine
 10
100.1274606299213
 20
34.4375
 30
0.0
 11
100.1274606299213
 21
34.6875
 31
0.0
  0
LINE
  5
14B
330
1F
100
AcDbEntity
  8
THRU-CUT
 62
     5
100
AcDbLine
 10
100.1274606299213
 20
34.4375
 30
0.0
 11
105.3149606299213
 21
34.4375
 31
0.0
  0
LINE
  5
14C
330
1F
100
AcDbEntity
  8
THRU-CUT
 62
     5
100
AcDbLine
 10
105.3149606299213
 20
34.6875
 30
0.0
 11
100.1274606299213
 21
34.6875
 31
0.0
  0
LINE
  5
14D
330
1F
100
AcDbEntity
  8
THRU-CUT
 62
     5
100
AcDbLine
 10
110.3149606299213
 20
34.4375
 30
0.0
 11
110.3149606299213
 21
34.6875
 31
0.0
  0
LINE
  5
14E
330
1F
100
AcDbEntity
  8
THRU-CUT
 62
     5
100
AcDbLine
 10
118.3174212598412
 20
52.625
 30
0.0
 11
118.3174212598412
 21
42.9375
 31
0.0
  0
LINE
  5
14F
330
1F
100
AcDbEntity
  8
CREASE
 62
     3
100
AcDbLine
 10
112.8149606299213
 20
34.6875
 30
0.0
 11
112.8149606299213
 21
42.6875
 31
0.0
  0
LINE
  5
150
330
1F
100
AcDbEntity
  8
THRU-CUT
 62
     5
100
AcDbLine
 10
143.6299212598412
 20
50.9375
 30
0.0
 11
143.9424212598412
 21
50.9375
 31
0.0
  0
LINE
  5
151
330
1F
100
AcDbEntity
  8
THRU-CUT
 62
     5
100
AcDbLine
 10
141.1924212598412
 20
42.6875
 30
0.0
 11
141.1924212598412
 21
42.9375
 31
0.0
  0
LINE
  5
152
330
1F
100
AcDbEntity
  8
THRU-CUT
 62
     5
100
AcDbLine
 10
133.4424212598412
 20
52.625
 30
0.0
 11
123.5674212598412
 21
52.625
 31
0.0
  0
LINE
  5
153
330
1F
100
AcDbEntity
  8
THRU-CUT
 62
     5
100
AcDbLine
 10
95.12746062992126
 20
42.9375
 30
0.0
 11
89.93996062992126
 21
42.9375
 31
0.0
  0
LINE
  5
154
330
1F
100
AcDbEntity
  8
THRU-CUT
 62
     5
100
AcDbLine
 10
89.93996062992126
 20
42.6875
 30
0.0
 11
95.12746062992126
 21
42.6875
 31
0.0
  0
LINE
  5
155
330
1F
100
AcDbEntity
  8
THRU-CUT
 62
     5
100
AcDbLine
 10
95.12746062992126
 20
34.6875
 30
0.0
 11
89.93996062992126
 21
34.6875
 31
0.0
  0
LINE
  5
156
330
1F
100
AcDbEntity
  8
THRU-CUT
 62
     5
100
AcDbLine
 10
146.3799212598412
 20
18.1875
 30
0.0
 11
151.3799212598412
 21
18.1875
 31
0.0
  0
LINE
  5
157
330
1F
100
AcDbEntity
  8
CREASE
 62
     3
100
AcDbLine
 10
72.06496062992126
 20
34.6875
 30
0.0
 11
72.06496062992126
 21
42.6875
 31
0.0
  0
LINE
  5
158
330
1F
100
AcDbEntity
  8
THRU-CUT
 62
     5
100
AcDbLine
 10
92.37746062992126
 20
50.9375
 30
0.0
 11
92.68996062992126
 21
50.9375
 31
0.0
  0
LINE
  5
159
330
1F
100
AcDbEntity
  8
CREASE
 62
     3
100
AcDbLine
 10
113.0024606299213
 20
42.6875
 30
0.0
 11
113.0024606299213
 21
34.6875
 31
0.0
  0
LINE
  5
15A
330
1F
100
AcDbEntity
  8
CREASE
 62
     3
100
AcDbLine
 10
102.8149606299213
 20
42.6875
 30
0.0
 11
102.8149606299213
 21
34.6875
 31
0.0
  0
LINE
  5
15B
330
1F
100
AcDbEntity
  8
CREASE
 62
     3
100
AcDbLine
 10
102.6274606299213
 20
34.6875
 30
0.0
 11
102.6274606299213
 21
42.6875
 31
0.0
  0
LINE
  5
15C
330
1F
100
AcDbEntity
  8
THRU-CUT
 62
     5
100
AcDbLine
 10
151.3799212598412
 20
26.1875
 30
0.0
 11
151.3799212598412
 21
26.4375
 31
0.0
  0
LINE
  5
15D
330
1F
100
AcDbEntity
  8
THRU-CUT
 62
     5
100
AcDbLine
 10
151.3799212598412
 20
26.4375
 30
0.0
 11
146.3799212598412
 21
26.4375
 31
0.0
  0
LINE
  5
15E
330
1F
100
AcDbEntity
  8
THRU-CUT
 62
     5
100
AcDbLine
 10
95.12746062992126
 20
42.9375
 30
0.0
 11
95.12746062992126
 21
42.6875
 31
0.0
  0
LINE
  5
15F
330
1F
100
AcDbEntity
  8
THRU-CUT
 62
     5
100
AcDbLine
 10
95.12746062992126
 20
34.6875
 30
0.0
 11
95.12746062992126
 21
34.4375
 31
0.0
  0
LINE
  5
160
330
1F
100
AcDbEntity
  8
THRU-CUT
 62
     5
100
AcDbLine
 10
89.93996062992126
 20
42.6875
 30
0.0
 11
89.93996062992126
 21
42.9375
 31
0.0
  0
LINE
  5
161
330
1F
100
AcDbEntity
  8
THRU-CUT
 62
     5
100
AcDbLine
 10
112.7524606299213
 20
50.9375
 30
0.0
 11
113.0649606299213
 21
50.9375
 31
0.0
  0
LINE
  5
162
330
1F
100
AcDbEntity
  8
THRU-CUT
 62
     5
100
AcDbLine
 10
92.68996062992126
 20
52.625
 30
0.0
 11
102.5649606299213
 21
52.625
 31
0.0
  0
LINE
  5
163
330
1F
100
AcDbEntity
  8
THRU-CUT
 62
     5
100
AcDbLine
 10
72.00246062992126
 20
50.9375
 30
0.0
 11
72.31496062992126
 21
50.9375
 31
0.0
  0
LINE
  5
164
330
1F
100
AcDbEntity
  8
THRU-CUT
 62
     5
100
AcDbLine
 10
72.00246062992126
 20
52.625
 30
0.0
 11
72.00246062992126
 21
50.9375
 31
0.0
  0
LINE
  5
165
330
1F
100
AcDbEntity
  8
PERF|000_999-090
 62
   151
100
AcDbLine
 10
82.18996062992126
 20
51.125
 30
0.0
 11
77.25246062992126
 21
51.125
 31
0.0
  0
LINE
  5
166
330
1F
100
AcDbEntity
  8
PERF|000_999-090
 62
   151
100
AcDbLine
 10
82.50246062992126
 20
51.125
 30
0.0
 11
87.43996062992126
 21
51.125
 31
0.0
  0
LINE
  5
167
330
1F
100
AcDbEntity
  8
PERF|000_999-090
 62
   151
100
AcDbLine
 10
72.31496062992126
 20
51.125
 30
0.0
 11
77.25246062992126
 21
51.125
 31
0.0
  0
LINE
  5
168
330
1F
100
AcDbEntity
  8
PERF|000_999-090
 62
   151
100
AcDbLine
 10
92.37746062992126
 20
51.125
 30
0.0
 11
87.43996062992126
 21
51.125
 31
0.0
  0
LINE
  5
169
330
1F
100
AcDbEntity
  8
THRU-CUT
 62
     5
100
AcDbLine
 10
92.37746062992126
 20
52.625
 30
0.0
 11
92.37746062992126
 21
50.9375
 31
0.0
  0
LINE
  5
16A
330
1F
100
AcDbEntity
  8
THRU-CUT
 62
     5
100
AcDbLine
 10
105.3149606299213
 20
42.9375
 30
0.0
 11
100.1274606299213
 21
42.9375
 31
0.0
  0
LINE
  5
16B
330
1F
100
AcDbEntity
  8
THRU-CUT
 62
     5
100
AcDbLine
 10
105.3149606299213
 20
34.6875
 30
0.0
 11
105.3149606299213
 21
34.4375
 31
0.0
  0
LINE
  5
16C
330
1F
100
AcDbEntity
  8
THRU-CUT
 62
     5
100
AcDbLine
 10
79.75246062992126
 20
42.6875
 30
0.0
 11
79.75246062992126
 21
42.9375
 31
0.0
  0
LINE
  5
16D
330
1F
100
AcDbEntity
  8
THRU-CUT
 62
     5
100
AcDbLine
 10
79.75246062992126
 20
42.6875
 30
0.0
 11
84.93996062992126
 21
42.6875
 31
0.0
  0
LINE
  5
16E
330
1F
100
AcDbEntity
  8
THRU-CUT
 62
     5
100
AcDbLine
 10
84.93996062992126
 20
42.9375
 30
0.0
 11
79.75246062992126
 21
42.9375
 31
0.0
  0
LINE
  5
16F
330
1F
100
AcDbEntity
  8
THRU-CUT
 62
     5
100
AcDbLine
 10
84.93996062992126
 20
42.9375
 30
0.0
 11
84.93996062992126
 21
42.6875
 31
0.0
  0
LINE
  5
170
330
1F
100
AcDbEntity
  8
THRU-CUT
 62
     5
100
AcDbLine
 10
166.7549212598412
 20
18.1875
 30
0.0
 11
169.2549212598412
 21
18.1875
 31
0.0
  0
LINE
  5
171
330
1F
100
AcDbEntity
  8
THRU-CUT
 62
     5
100
AcDbLine
 10
169.2549212598412
 20
18.1875
 30
0.0
 11
169.2549212598412
 21
26.1875
 31
0.0
  0
LINE
  5
172
330
1F
100
AcDbEntity
  8
THRU-CUT
 62
     5
100
AcDbLine
 10
159.0674212598412
 20
18.1875
 30
0.0
 11
159.0674212598412
 21
26.1875
 31
0.0
  0
LINE
  5
173
330
1F
100
AcDbEntity
  8
THRU-CUT
 62
     5
100
AcDbLine
 10
115.5024606299213
 20
42.9375
 30
0.0
 11
115.5024606299213
 21
42.6875
 31
0.0
  0
LINE
  5
174
330
1F
100
AcDbEntity
  8
THRU-CUT
 62
     5
100
AcDbLine
 10
110.3149606299213
 20
42.6875
 30
0.0
 11
110.3149606299213
 21
42.9375
 31
0.0
  0
LINE
  5
175
330
1F
100
AcDbEntity
  8
THRU-CUT
 62
     5
100
AcDbLine
 10
126.0049212598412
 20
26.4375
 30
0.0
 11
131.0049212598412
 21
26.4375
 31
0.0
  0
LINE
  5
176
330
1F
100
AcDbEntity
  8
THRU-CUT
 62
     5
100
AcDbLine
 10
126.0049212598412
 20
26.1875
 30
0.0
 11
131.0049212598412
 21
26.1875
 31
0.0
  0
LINE
  5
177
330
1F
100
AcDbEntity
  8
THRU-CUT
 62
     5
100
AcDbLine
 10
138.6924212598412
 20
26.4375
 30
0.0
 11
138.6924212598412
 21
34.4375
 31
0.0
  0
LINE
  5
178
330
1F
100
AcDbEntity
  8
THRU-CUT
 62
     5
100
AcDbLine
 10
131.0049212598412
 20
26.1875
 30
0.0
 11
131.0049212598412
 21
26.4375
 31
0.0
  0
LINE
  5
179
330
1F
100
AcDbEntity
  8
THRU-CUT
 62
     5
100
AcDbLine
 10
141.1924212598412
 20
26.4375
 30
0.0
 11
136.1924212598412
 21
26.4375
 31
0.0
  0
LINE
  5
17A
330
1F
100
AcDbEntity
  8
THRU-CUT
 62
     5
100
AcDbLine
 10
161.5674212598412
 20
18.1875
 30
0.0
 11
156.5674212598412
 21
18.1875
 31
0.0
  0
LINE
  5
17B
330
1F
100
AcDbEntity
  8
THRU-CUT
 62
     5
100
AcDbLine
 10
148.8799212598412
 20
18.1875
 30
0.0
 11
148.8799212598412
 21
26.1875
 31
0.0
  0
LINE
  5
17C
330
1F
100
AcDbEntity
  8
THRU-CUT
 62
     5
100
AcDbLine
 10
146.3799212598412
 20
34.4375
 30
0.0
 11
151.3799212598412
 21
34.4375
 31
0.0
  0
LINE
  5
17D
330
1F
100
AcDbEntity
  8
THRU-CUT
 62
     5
100
AcDbLine
 10
146.3799212598412
 20
34.6875
 30
0.0
 11
146.3799212598412
 21
34.4375
 31
0.0
  0
LINE
  5
17E
330
1F
100
AcDbEntity
  8
CREASE
 62
     3
100
AcDbLine
 10
72.25246062992126
 20
42.6875
 30
0.0
 11
72.25246062992126
 21
34.6875
 31
0.0
  0
LINE
  5
17F
330
1F
100
AcDbEntity
  8
CREASE
 62
     3
100
AcDbLine
 10
82.43996062992126
 20
42.6875
 30
0.0
 11
82.43996062992126
 21
34.6875
 31
0.0
  0
LINE
  5
180
330
1F
100
AcDbEntity
  8
CREASE
 62
     3
100
AcDbLine
 10
82.25246062992126
 20
34.6875
 30
0.0
 11
82.25246062992126
 21
42.6875
 31
0.0
  0
LINE
  5
181
330
1F
100
AcDbEntity
  8
THRU-CUT
 62
     5
100
AcDbLine
 10
89.93996062992126
 20
34.4375
 30
0.0
 11
95.12746062992126
 21
34.4375
 31
0.0
  0
LINE
  5
182
330
1F
100
AcDbEntity
  8
THRU-CUT
 62
     5
100
AcDbLine
 10
151.3799212598412
 20
34.6875
 30
0.0
 11
146.3799212598412
 21
34.6875
 31
0.0
  0
LINE
  5
183
330
1F
100
AcDbEntity
  8
THRU-CUT
 62
     5
100
AcDbLine
 10
156.5674212598412
 20
34.6875
 30
0.0
 11
156.5674212598412
 21
34.4375
 31
0.0
  0
LINE
  5
184
330
1F
100
AcDbEntity
  8
THRU-CUT
 62
     5
100
AcDbLine
 10
156.5674212598412
 20
34.6875
 30
0.0
 11
161.5674212598412
 21
34.6875
 31
0.0
  0
LINE
  5
185
330
1F
100
AcDbEntity
  8
THRU-CUT
 62
     5
100
AcDbLine
 10
128.5049212598412
 20
18.1875
 30
0.0
 11
128.5049212598412
 21
26.1875
 31
0.0
  0
LINE
  5
186
330
1F
100
AcDbEntity
  8
THRU-CUT
 62
     5
100
AcDbLine
 10
151.3799212598412
 20
26.1875
 30
0.0
 11
146.3799212598412
 21
26.1875
 31
0.0
  0
LINE
  5
187
330
1F
100
AcDbEntity
  8
THRU-CUT
 62
     5
100
AcDbLine
 10
169.2549212598412
 20
26.4375
 30
0.0
 11
169.2549212598412
 21
34.4375
 31
0.0
  0
LINE
  5
188
330
1F
100
AcDbEntity
  8
THRU-CUT
 62
     5
100
AcDbLine
 10
159.0674212598412
 20
26.4375
 30
0.0
 11
159.0674212598412
 21
34.4375
 31
0.0
  0
LINE
  5
189
330
1F
100
AcDbEntity
  8
THRU-CUT
 62
     5
100
AcDbLine
 10
156.5674212598412
 20
26.4375
 30
0.0
 11
161.5674212598412
 21
26.4375
 31
0.0
  0
LINE
  5
18A
330
1F
100
AcDbEntity
  8
THRU-CUT
 62
     5
100
AcDbLine
 10
166.7549212598412
 20
26.4375
 30
0.0
 11
169.2549212598412
 21
26.4375
 31
0.0
  0
LINE
  5
18B
330
1F
100
AcDbEntity
  8
THRU-CUT
 62
     5
100
AcDbLine
 10
166.7549212598412
 20
26.1875
 30
0.0
 11
169.2549212598412
 21
26.1875
 31
0.0
  0
LINE
  5
18C
330
1F
100
AcDbEntity
  8
THRU-CUT
 62
     5
100
AcDbLine
 10
166.7549212598412
 20
26.4375
 30
0.0
 11
166.7549212598412
 21
26.1875
 31
0.0
  0
LINE
  5
18D
330
1F
100
AcDbEntity
  8
THRU-CUT
 62
     5
100
AcDbLine
 10
148.8799212598412
 20
26.4375
 30
0.0
 11
148.8799212598412
 21
34.4375
 31
0.0
  0
LINE
  5
18E
330
1F
100
AcDbEntity
  8
THRU-CUT
 62
     5
100
AcDbLine
 10
131.0049212598412
 20
34.4375
 30
0.0
 11
126.0049212598412
 21
34.4375
 31
0.0
  0
LINE
  5
18F
330
1F
100
AcDbEntity
  8
CREASE
 62
     3
100
AcDbLine
 10
82.43996062992126
 20
26.1875
 30
0.0
 11
82.43996062992126
 21
18.1875
 31
0.0
  0
LINE
  5
190
330
1F
100
AcDbEntity
  8
CREASE
 62
     3
100
AcDbLine
 10
82.25246062992126
 20
18.1875
 30
0.0
 11
82.25246062992126
 21
26.1875
 31
0.0
  0
LINE
  5
191
330
1F
100
AcDbEntity
  8
THRU-CUT
 62
     5
100
AcDbLine
 10
115.5024606299213
 20
18.1875
 30
0.0
 11
115.5024606299213
 21
17.9375
 31
0.0
  0
LINE
  5
192
330
1F
100
AcDbEntity
  8
PERF|000_999-090
 62
   151
100
AcDbLine
 10
123.5674212598412
 20
1.5
 30
0.0
 11
128.5049212598412
 21
1.5
 31
0.0
  0
LINE
  5
193
330
1F
100
AcDbEntity
  8
THRU-CUT
 62
     5
100
AcDbLine
 10
156.5674212598412
 20
26.4375
 30
0.0
 11
156.5674212598412
 21
26.1875
 31
0.0
  0
LINE
  5
194
330
1F
100
AcDbEntity
  8
THRU-CUT
 62
     5
100
AcDbLine
 10
156.5674212598412
 20
26.1875
 30
0.0
 11
161.5674212598412
 21
26.1875
 31
0.0
  0
LINE
  5
195
330
1F
100
AcDbEntity
  8
THRU-CUT
 62
     5
100
AcDbLine
 10
166.7549212598412
 20
34.6875
 30
0.0
 11
166.7549212598412
 21
34.4375
 31
0.0
  0
LINE
  5
196
330
1F
100
AcDbEntity
  8
THRU-CUT
 62
     5
100
AcDbLine
 10
166.7549212598412
 20
34.6875
 30
0.0
 11
169.2549212598412
 21
34.6875
 31
0.0
  0
LINE
  5
197
330
1F
100
AcDbEntity
  8
THRU-CUT
 62
     5
100
AcDbLine
 10
166.7549212598412
 20
34.4375
 30
0.0
 11
169.2549212598412
 21
34.4375
 31
0.0
  0
LINE
  5
198
330
1F
100
AcDbEntity
  8
THRU-CUT
 62
     5
100
AcDbLine
 10
161.5674212598412
 20
34.4375
 30
0.0
 11
161.5674212598412
 21
34.6875
 31
0.0
  0
LINE
  5
199
330
1F
100
AcDbEntity
  8
THRU-CUT
 62
     5
100
AcDbLine
 10
161.5674212598412
 20
34.4375
 30
0.0
 11
156.5674212598412
 21
34.4375
 31
0.0
  0
LINE
  5
19A
330
1F
100
AcDbEntity
  8
THRU-CUT
 62
     5
100
AcDbLine
 10
131.0049212598412
 20
34.4375
 30
0.0
 11
131.0049212598412
 21
34.6875
 31
0.0
  0
LINE
  5
19B
330
1F
100
AcDbEntity
  8
THRU-CUT
 62
     5
100
AcDbLine
 10
131.0049212598412
 20
34.6875
 30
0.0
 11
126.0049212598412
 21
34.6875
 31
0.0
  0
LINE
  5
19C
330
1F
100
AcDbEntity
  8
THRU-CUT
 62
     5
100
AcDbLine
 10
161.5674212598412
 20
26.1875
 30
0.0
 11
161.5674212598412
 21
26.4375
 31
0.0
  0
LINE
  5
19D
330
1F
100
AcDbEntity
  8
THRU-CUT
 62
     5
100
AcDbLine
 10
120.8174212598412
 20
34.4375
 30
0.0
 11
120.8174212598412
 21
34.6875
 31
0.0
  0
LINE
  5
19E
330
1F
100
AcDbEntity
  8
THRU-CUT
 62
     5
100
AcDbLine
 10
120.8174212598412
 20
26.1875
 30
0.0
 11
120.8174212598412
 21
26.4375
 31
0.0
  0
LINE
  5
19F
330
1F
100
AcDbEntity
  8
THRU-CUT
 62
     5
100
AcDbLine
 10
126.0049212598412
 20
34.6875
 30
0.0
 11
126.0049212598412
 21
34.4375
 31
0.0
  0
LINE
  5
1A0
330
1F
100
AcDbEntity
  8
THRU-CUT
 62
     5
100
AcDbLine
 10
136.1924212598412
 20
34.4375
 30
0.0
 11
141.1924212598412
 21
34.4375
 31
0.0
  0
LINE
  5
1A1
330
1F
100
AcDbEntity
  8
THRU-CUT
 62
     5
100
AcDbLine
 10
136.1924212598412
 20
34.6875
 30
0.0
 11
141.1924212598412
 21
34.6875
 31
0.0
  0
LINE
  5
1A2
330
1F
100
AcDbEntity
  8
THRU-CUT
 62
     5
100
AcDbLine
 10
136.1924212598412
 20
26.4375
 30
0.0
 11
136.1924212598412
 21
26.1875
 31
0.0
  0
LINE
  5
1A3
330
1F
100
AcDbEntity
  8
THRU-CUT
 62
     5
100
AcDbLine
 10
126.0049212598412
 20
26.4375
 30
0.0
 11
126.0049212598412
 21
26.1875
 31
0.0
  0
LINE
  5
1A4
330
1F
100
AcDbEntity
  8
THRU-CUT
 62
     5
100
AcDbLine
 10
151.3799212598412
 20
34.4375
 30
0.0
 11
151.3799212598412
 21
34.6875
 31
0.0
  0
LINE
  5
1A5
330
1F
100
AcDbEntity
  8
THRU-CUT
 62
     5
100
AcDbLine
 10
141.1924212598412
 20
26.1875
 30
0.0
 11
141.1924212598412
 21
26.4375
 31
0.0
  0
LINE
  5
1A6
330
1F
100
AcDbEntity
  8
THRU-CUT
 62
     5
100
AcDbLine
 10
128.5049212598412
 20
26.4375
 30
0.0
 11
128.5049212598412
 21
34.4375
 31
0.0
  0
LINE
  5
1A7
330
1F
100
AcDbEntity
  8
THRU-CUT
 62
     5
100
AcDbLine
 10
110.3149606299213
 20
26.1875
 30
0.0
 11
110.3149606299213
 21
26.4375
 31
0.0
  0
LINE
  5
1A8
330
1F
100
AcDbEntity
  8
THRU-CUT
 62
     5
100
AcDbLine
 10
115.5024606299213
 20
26.4375
 30
0.0
 11
110.3149606299213
 21
26.4375
 31
0.0
  0
LINE
  5
1A9
330
1F
100
AcDbEntity
  8
THRU-CUT
 62
     5
100
AcDbLine
 10
110.3149606299213
 20
26.1875
 30
0.0
 11
115.5024606299213
 21
26.1875
 31
0.0
  0
LINE
  5
1AA
330
1F
100
AcDbEntity
  8
THRU-CUT
 62
     5
100
AcDbLine
 10
100.1274606299213
 20
26.1875
 30
0.0
 11
100.1274606299213
 21
26.4375
 31
0.0
  0
LINE
  5
1AB
330
1F
100
AcDbEntity
  8
THRU-CUT
 62
     5
100
AcDbLine
 10
100.1274606299213
 20
26.1875
 30
0.0
 11
105.3149606299213
 21
26.1875
 31
0.0
  0
LINE
  5
1AC
330
1F
100
AcDbEntity
  8
THRU-CUT
 62
     5
100
AcDbLine
 10
136.1924212598412
 20
18.1875
 30
0.0
 11
141.1924212598412
 21
18.1875
 31
0.0
  0
LINE
  5
1AD
330
1F
100
AcDbEntity
  8
THRU-CUT
 62
     5
100
AcDbLine
 10
131.0049212598412
 20
18.1875
 30
0.0
 11
126.0049212598412
 21
18.1875
 31
0.0
  0
LINE
  5
1AE
330
1F
100
AcDbEntity
  8
THRU-CUT
 62
     5
100
AcDbLine
 10
166.7549212598412
 20
9.9375
 30
0.0
 11
169.2549212598412
 21
9.9375
 31
0.0
  0
LINE
  5
1AF
330
1F
100
AcDbEntity
  8
THRU-CUT
 62
     5
100
AcDbLine
 10
166.7549212598412
 20
9.9375
 30
0.0
 11
166.7549212598412
 21
9.6875
 31
0.0
  0
LINE
  5
1B0
330
1F
100
AcDbEntity
  8
THRU-CUT
 62
     5
100
AcDbLine
 10
161.5674212598412
 20
9.9375
 30
0.0
 11
156.5674212598412
 21
9.9375
 31
0.0
  0
LINE
  5
1B1
330
1F
100
AcDbEntity
  8
THRU-CUT
 62
     5
100
AcDbLine
 10
156.5674212598412
 20
9.9375
 30
0.0
 11
156.5674212598412
 21
9.6875
 31
0.0
  0
LINE
  5
1B2
330
1F
100
AcDbEntity
  8
THRU-CUT
 62
     5
100
AcDbLine
 10
138.6924212598412
 20
18.1875
 30
0.0
 11
138.6924212598412
 21
26.1875
 31
0.0
  0
LINE
  5
1B3
330
1F
100
AcDbEntity
  8
THRU-CUT
 62
     5
100
AcDbLine
 10
161.5674212598412
 20
9.6875
 30
0.0
 11
156.5674212598412
 21
9.6875
 31
0.0
  0
LINE
  5
1B4
330
1F
100
AcDbEntity
  8
THRU-CUT
 62
     5
100
AcDbLine
 10
146.3799212598412
 20
9.6875
 30
0.0
 11
151.3799212598412
 21
9.6875
 31
0.0
  0
LINE
  5
1B5
330
1F
100
AcDbEntity
  8
THRU-CUT
 62
     5
100
AcDbLine
 10
146.3799212598412
 20
9.9375
 30
0.0
 11
151.3799212598412
 21
9.9375
 31
0.0
  0
LINE
  5
1B6
330
1F
100
AcDbEntity
  8
THRU-CUT
 62
     5
100
AcDbLine
 10
146.3799212598412
 20
9.9375
 30
0.0
 11
146.3799212598412
 21
9.6875
 31
0.0
  0
LINE
  5
1B7
330
1F
100
AcDbEntity
  8
PERF|000_999-090
 62
   151
100
AcDbLine
 10
164.3174212598412
 20
1.5
 30
0.0
 11
169.2549212598412
 21
1.5
 31
0.0
  0
LINE
  5
1B8
330
1F
100
AcDbEntity
  8
PERF|000_999-090
 62
   151
100
AcDbLine
 10
164.0049212598412
 20
1.5
 30
0.0
 11
159.0674212598412
 21
1.5
 31
0.0
  0
LINE
  5
1B9
330
1F
100
AcDbEntity
  8
PERF|000_999-090
 62
   151
100
AcDbLine
 10
154.1299212598412
 20
1.5
 30
0.0
 11
159.0674212598412
 21
1.5
 31
0.0
  0
LINE
  5
1BA
330
1F
100
AcDbEntity
  8
PERF|000_999-090
 62
   151
100
AcDbLine
 10
153.8174212598412
 20
1.5
 30
0.0
 11
148.8799212598412
 21
1.5
 31
0.0
  0
LINE
  5
1BB
330
1F
100
AcDbEntity
  8
THRU-CUT
 62
     5
100
AcDbLine
 10
136.1924212598412
 20
9.9375
 30
0.0
 11
141.1924212598412
 21
9.9375
 31
0.0
  0
LINE
  5
1BC
330
1F
100
AcDbEntity
  8
THRU-CUT
 62
     5
100
AcDbLine
 10
136.1924212598412
 20
9.6875
 30
0.0
 11
141.1924212598412
 21
9.6875
 31
0.0
  0
LINE
  5
1BD
330
1F
100
AcDbEntity
  8
THRU-CUT
 62
     5
100
AcDbLine
 10
141.1924212598412
 20
9.6875
 30
0.0
 11
141.1924212598412
 21
9.9375
 31
0.0
  0
LINE
  5
1BE
330
1F
100
AcDbEntity
  8
THRU-CUT
 62
     5
100
AcDbLine
 10
141.1924212598412
 20
34.4375
 30
0.0
 11
141.1924212598412
 21
34.6875
 31
0.0
  0
LINE
  5
1BF
330
1F
100
AcDbEntity
  8
THRU-CUT
 62
     5
100
AcDbLine
 10
136.1924212598412
 20
34.6875
 30
0.0
 11
136.1924212598412
 21
34.4375
 31
0.0
  0
LINE
  5
1C0
330
1F
100
AcDbEntity
  8
THRU-CUT
 62
     5
100
AcDbLine
 10
105.3149606299213
 20
9.9375
 30
0.0
 11
100.1274606299213
 21
9.9375
 31
0.0
  0
LINE
  5
1C1
330
1F
100
AcDbEntity
  8
CREASE
 62
     3
100
AcDbLine
 10
112.8149606299213
 20
1.6875
 30
0.0
 11
112.8149606299213
 21
9.6875
 31
0.0
  0
LINE
  5
1C2
330
1F
100
AcDbEntity
  8
THRU-CUT
 62
     5
100
AcDbLine
 10
95.12746062992126
 20
26.4375
 30
0.0
 11
89.93996062992126
 21
26.4375
 31
0.0
  0
LINE
  5
1C3
330
1F
100
AcDbEntity
  8
THRU-CUT
 62
     5
100
AcDbLine
 10
118.3174212598412
 20
34.4375
 30
0.0
 11
118.3174212598412
 21
26.4375
 31
0.0
  0
LINE
  5
1C4
330
1F
100
AcDbEntity
  8
THRU-CUT
 62
     5
100
AcDbLine
 10
118.3174212598412
 20
26.1875
 30
0.0
 11
118.3174212598412
 21
18.1875
 31
0.0
  0
LINE
  5
1C5
330
1F
100
AcDbEntity
  8
PERF|000_999-090
 62
   151
100
AcDbLine
 10
133.4424212598412
 20
1.5
 30
0.0
 11
128.5049212598412
 21
1.5
 31
0.0
  0
LINE
  5
1C6
330
1F
100
AcDbEntity
  8
THRU-CUT
 62
     5
100
AcDbLine
 10
105.3149606299213
 20
18.1875
 30
0.0
 11
105.3149606299213
 21
17.9375
 31
0.0
  0
LINE
  5
1C7
330
1F
100
AcDbEntity
  8
THRU-CUT
 62
     5
100
AcDbLine
 10
110.3149606299213
 20
17.9375
 30
0.0
 11
110.3149606299213
 21
18.1875
 31
0.0
  0
LINE
  5
1C8
330
1F
100
AcDbEntity
  8
THRU-CUT
 62
     5
100
AcDbLine
 10
100.1274606299213
 20
17.9375
 30
0.0
 11
100.1274606299213
 21
18.1875
 31
0.0
  0
LINE
  5
1C9
330
1F
100
AcDbEntity
  8
THRU-CUT
 62
     5
100
AcDbLine
 10
100.1274606299213
 20
17.9375
 30
0.0
 11
105.3149606299213
 21
17.9375
 31
0.0
  0
LINE
  5
1CA
330
1F
100
AcDbEntity
  8
THRU-CUT
 62
     5
100
AcDbLine
 10
105.3149606299213
 20
18.1875
 30
0.0
 11
100.1274606299213
 21
18.1875
 31
0.0
  0
LINE
  5
1CB
330
1F
100
AcDbEntity
  8
THRU-CUT
 62
     5
100
AcDbLine
 10
115.5024606299213
 20
18.1875
 30
0.0
 11
110.3149606299213
 21
18.1875
 31
0.0
  0
LINE
  5
1CC
330
1F
100
AcDbEntity
  8
THRU-CUT
 62
     5
100
AcDbLine
 10
110.3149606299213
 20
17.9375
 30
0.0
 11
115.5024606299213
 21
17.9375
 31
0.0
  0
LINE
  5
1CD
330
1F
100
AcDbEntity
  8
THRU-CUT
 62
     5
100
AcDbLine
 10
153.8174212598412
 20
1.6875
 30
0.0
 11
154.1299212598412
 21
1.6875
 31
0.0
  0
LINE
  5
1CE
330
1F
100
AcDbEntity
  8
THRU-CUT
 62
     5
100
AcDbLine
 10
151.3799212598412
 20
9.6875
 30
0.0
 11
151.3799212598412
 21
9.9375
 31
0.0
  0
LINE
  5
1CF
330
1F
100
AcDbEntity
  8
THRU-CUT
 62
     5
100
AcDbLine
 10
166.7549212598412
 20
9.6875
 30
0.0
 11
169.2549212598412
 21
9.6875
 31
0.0
  0
LINE
  5
1D0
330
1F
100
AcDbEntity
  8
THRU-CUT
 62
     5
100
AcDbLine
 10
164.0049212598412
 20
1.6875
 30
0.0
 11
164.3174212598412
 21
1.6875
 31
0.0
  0
LINE
  5
1D1
330
1F
100
AcDbEntity
  8
THRU-CUT
 62
     5
100
AcDbLine
 10
141.1924212598412
 20
26.1875
 30
0.0
 11
136.1924212598412
 21
26.1875
 31
0.0
  0
LINE
  5
1D2
330
1F
100
AcDbEntity
  8
THRU-CUT
 62
     5
100
AcDbLine
 10
161.5674212598412
 20
9.6875
 30
0.0
 11
161.5674212598412
 21
9.9375
 31
0.0
  0
LINE
  5
1D3
330
1F
100
AcDbEntity
  8
THRU-CUT
 62
     5
100
AcDbLine
 10
133.4424212598412
 20
1.6875
 30
0.0
 11
133.7549212598412
 21
1.6875
 31
0.0
  0
LINE
  5
1D4
330
1F
100
AcDbEntity
  8
THRU-CUT
 62
     5
100
AcDbLine
 10
126.0049212598412
 20
9.9375
 30
0.0
 11
126.0049212598412
 21
9.6875
 31
0.0
  0
LINE
  5
1D5
330
1F
100
AcDbEntity
  8
THRU-CUT
 62
     5
100
AcDbLine
 10
131.0049212598412
 20
9.9375
 30
0.0
 11
126.0049212598412
 21
9.9375
 31
0.0
  0
LINE
  5
1D6
330
1F
100
AcDbEntity
  8
THRU-CUT
 62
     5
100
AcDbLine
 10
131.0049212598412
 20
9.6875
 30
0.0
 11
126.0049212598412
 21
9.6875
 31
0.0
  0
LINE
  5
1D7
330
1F
100
AcDbEntity
  8
THRU-CUT
 62
     5
100
AcDbLine
 10
136.1924212598412
 20
9.9375
 30
0.0
 11
136.1924212598412
 21
9.6875
 31
0.0
  0
LINE
  5
1D8
330
1F
100
AcDbEntity
  8
THRU-CUT
 62
     5
100
AcDbLine
 10
105.3149606299213
 20
26.4375
 30
0.0
 11
105.3149606299213
 21
26.1875
 31
0.0
  0
LINE
  5
1D9
330
1F
100
AcDbEntity
  8
CREASE
 62
     3
100
AcDbLine
 10
102.8149606299213
 20
9.6875
 30
0.0
 11
102.8149606299213
 21
1.6875
 31
0.0
  0
LINE
  5
1DA
330
1F
100
AcDbEntity
  8
CREASE
 62
     3
100
AcDbLine
 10
102.6274606299213
 20
1.6875
 30
0.0
 11
102.6274606299213
 21
9.6875
 31
0.0
  0
LINE
  5
1DB
330
1F
100
AcDbEntity
  8
THRU-CUT
 62
     5
100
AcDbLine
 10
143.6299212598412
 20
1.6875
 30
0.0
 11
143.9424212598412
 21
1.6875
 31
0.0
  0
LINE
  5
1DC
330
1F
100
AcDbEntity
  8
CREASE
 62
     3
100
AcDbLine
 10
72.25246062992126
 20
26.1875
 30
0.0
 11
72.25246062992126
 21
18.1875
 31
0.0
  0
LINE
  5
1DD
330
1F
100
AcDbEntity
  8
PERF|000_999-090
 62
   151
100
AcDbLine
 10
102.5649606299213
 20
1.5
 30
0.0
 11
97.62746062992126
 21
1.5
 31
0.0
  0
LINE
  5
1DE
330
1F
100
AcDbEntity
  8
THRU-CUT
 62
     5
100
AcDbLine
 10
105.3149606299213
 20
26.4375
 30
0.0
 11
100.1274606299213
 21
26.4375
 31
0.0
  0
LINE
  5
1DF
330
1F
100
AcDbEntity
  8
THRU-CUT
 62
     5
100
AcDbLine
 10
131.0049212598412
 20
9.6875
 30
0.0
 11
131.0049212598412
 21
9.9375
 31
0.0
  0
LINE
  5
1E0
330
1F
100
AcDbEntity
  8
THRU-CUT
 62
     5
100
AcDbLine
 10
123.2549212598412
 20
1.6875
 30
0.0
 11
123.5674212598412
 21
1.6875
 31
0.0
  0
LINE
  5
1E1
330
1F
100
AcDbEntity
  8
THRU-CUT
 62
     5
100
AcDbLine
 10
120.8174212598412
 20
9.6875
 30
0.0
 11
120.8174212598412
 21
9.9375
 31
0.0
  0
LINE
  5
1E2
330
1F
100
AcDbEntity
  8
PERF|000_999-090
 62
   151
100
AcDbLine
 10
133.7549212598412
 20
1.5
 30
0.0
 11
138.6924212598412
 21
1.5
 31
0.0
  0
LINE
  5
1E3
330
1F
100
AcDbEntity
  8
PERF|000_999-090
 62
   151
100
AcDbLine
 10
143.6299212598412
 20
1.5
 30
0.0
 11
138.6924212598412
 21
1.5
 31
0.0
  0
LINE
  5
1E4
330
1F
100
AcDbEntity
  8
THRU-CUT
 62
     5
100
AcDbLine
 10
79.75246062992126
 20
17.9375
 30
0.0
 11
84.93996062992126
 21
17.9375
 31
0.0
  0
LINE
  5
1E5
330
1F
100
AcDbEntity
  8
THRU-CUT
 62
     5
100
AcDbLine
 10
84.93996062992126
 20
18.1875
 30
0.0
 11
79.75246062992126
 21
18.1875
 31
0.0
  0
LINE
  5
1E6
330
1F
100
AcDbEntity
  8
THRU-CUT
 62
     5
100
AcDbLine
 10
74.75246062992126
 20
18.1875
 30
0.0
 11
74.75246062992126
 21
17.9375
 31
0.0
  0
LINE
  5
1E7
330
1F
100
AcDbEntity
  8
CREASE
 62
     3
100
AcDbLine
 10
92.62746062992126
 20
26.1875
 30
0.0
 11
92.62746062992126
 21
18.1875
 31
0.0
  0
LINE
  5
1E8
330
1F
100
AcDbEntity
  8
CREASE
 62
     3
100
AcDbLine
 10
92.43996062992126
 20
18.1875
 30
0.0
 11
92.43996062992126
 21
26.1875
 31
0.0
  0
LINE
  5
1E9
330
1F
100
AcDbEntity
  8
PERF|000_999-090
 62
   151
100
AcDbLine
 10
112.7524606299213
 20
1.5
 30
0.0
 11
107.8149606299213
 21
1.5
 31
0.0
  0
LINE
  5
1EA
330
1F
100
AcDbEntity
  8
PERF|000_999-090
 62
   151
100
AcDbLine
 10
113.0649606299213
 20
1.5
 30
0.0
 11
118.0024606299213
 21
1.5
 31
0.0
  0
LINE
  5
1EB
330
1F
100
AcDbEntity
  8
PERF|000_999-090
 62
   151
100
AcDbLine
 10
102.8774606299213
 20
1.5
 30
0.0
 11
107.8149606299213
 21
1.5
 31
0.0
  0
LINE
  5
1EC
330
1F
100
AcDbEntity
  8
THRU-CUT
 62
     5
100
AcDbLine
 10
89.93996062992126
 20
17.9375
 30
0.0
 11
89.93996062992126
 21
18.1875
 31
0.0
  0
LINE
  5
1ED
330
1F
100
AcDbEntity
  8
THRU-CUT
 62
     5
100
AcDbLine
 10
95.12746062992126
 20
18.1875
 30
0.0
 11
89.93996062992126
 21
18.1875
 31
0.0
  0
LINE
  5
1EE
330
1F
100
AcDbEntity
  8
THRU-CUT
 62
     5
100
AcDbLine
 10
89.93996062992126
 20
17.9375
 30
0.0
 11
95.12746062992126
 21
17.9375
 31
0.0
  0
LINE
  5
1EF
330
1F
100
AcDbEntity
  8
THRU-CUT
 62
     5
100
AcDbLine
 10
100.1274606299213
 20
9.6875
 30
0.0
 11
100.1274606299213
 21
9.9375
 31
0.0
  0
LINE
  5
1F0
330
1F
100
AcDbEntity
  8
THRU-CUT
 62
     5
100
AcDbLine
 10
102.5649606299213
 20
1.6875
 30
0.0
 11
102.8774606299213
 21
1.6875
 31
0.0
  0
LINE
  5
1F1
330
1F
100
AcDbEntity
  8
THRU-CUT
 62
     5
100
AcDbLine
 10
100.1274606299213
 20
9.6875
 30
0.0
 11
105.3149606299213
 21
9.6875
 31
0.0
  0
LINE
  5
1F2
330
1F
100
AcDbEntity
  8
THRU-CUT
 62
     5
100
AcDbLine
 10
74.75246062992126
 20
9.9375
 30
0.0
 11
74.75246062992126
 21
9.6875
 31
0.0
  0
LINE
  5
1F3
330
1F
100
AcDbEntity
  8
CREASE
 62
     3
100
AcDbLine
 10
92.43996062992126
 20
1.6875
 30
0.0
 11
92.43996062992126
 21
9.6875
 31
0.0
  0
LINE
  5
1F4
330
1F
100
AcDbEntity
  8
CREASE
 62
     3
100
AcDbLine
 10
92.62746062992126
 20
9.6875
 30
0.0
 11
92.62746062992126
 21
1.6875
 31
0.0
  0
LINE
  5
1F5
330
1F
100
AcDbEntity
  8
CREASE
 62
     3
100
AcDbLine
 10
82.43996062992126
 20
9.6875
 30
0.0
 11
82.43996062992126
 21
1.6875
 31
0.0
  0
LINE
  5
1F6
330
1F
100
AcDbEntity
  8
THRU-CUT
 62
     5
100
AcDbLine
 10
55.9375
 20
56.875
 30
0.0
 11
56.25
 21
56.875
 31
0.0
  0
LINE
  5
1F7
330
1F
100
AcDbEntity
  8
THRU-CUT
 62
     5
100
AcDbLine
 10
95.12746062992126
 20
26.4375
 30
0.0
 11
95.12746062992126
 21
26.1875
 31
0.0
  0
LINE
  5
1F8
330
1F
100
AcDbEntity
  8
THRU-CUT
 62
     5
100
AcDbLine
 10
79.75246062992126
 20
26.1875
 30
0.0
 11
84.93996062992126
 21
26.1875
 31
0.0
  0
LINE
  5
1F9
330
1F
100
AcDbEntity
  8
THRU-CUT
 62
     5
100
AcDbLine
 10
84.93996062992126
 20
26.4375
 30
0.0
 11
79.75246062992126
 21
26.4375
 31
0.0
  0
LINE
  5
1FA
330
1F
100
AcDbEntity
  8
THRU-CUT
 62
     5
100
AcDbLine
 10
74.75246062992126
 20
26.4375
 30
0.0
 11
74.75246062992126
 21
26.1875
 31
0.0
  0
LINE
  5
1FB
330
1F
100
AcDbEntity
  8
THRU-CUT
 62
     5
100
AcDbLine
 10
89.93996062992126
 20
26.1875
 30
0.0
 11
89.93996062992126
 21
26.4375
 31
0.0
  0
LINE
  5
1FC
330
1F
100
AcDbEntity
  8
THRU-CUT
 62
     5
100
AcDbLine
 10
84.93996062992126
 20
26.4375
 30
0.0
 11
84.93996062992126
 21
26.1875
 31
0.0
  0
LINE
  5
1FD
330
1F
100
AcDbEntity
  8
THRU-CUT
 62
     5
100
AcDbLine
 10
79.75246062992126
 20
26.1875
 30
0.0
 11
79.75246062992126
 21
26.4375
 31
0.0
  0
LINE
  5
1FE
330
1F
100
AcDbEntity
  8
THRU-CUT
 62
     5
100
AcDbLine
 10
115.5024606299213
 20
26.4375
 30
0.0
 11
115.5024606299213
 21
26.1875
 31
0.0
  0
LINE
  5
1FF
330
1F
100
AcDbEntity
  8
CREASE
 62
     3
100
AcDbLine
 10
113.0024606299213
 20
26.1875
 30
0.0
 11
113.0024606299213
 21
18.1875
 31
0.0
  0
LINE
  5
200
330
1F
100
AcDbEntity
  8
CREASE
 62
     3
100
AcDbLine
 10
112.8149606299213
 20
18.1875
 30
0.0
 11
112.8149606299213
 21
26.1875
 31
0.0
  0
LINE
  5
201
330
1F
100
AcDbEntity
  8
THRU-CUT
 62
     5
100
AcDbLine
 10
110.3149606299213
 20
9.6875
 30
0.0
 11
110.3149606299213
 21
9.9375
 31
0.0
  0
LINE
  5
202
330
1F
100
AcDbEntity
  8
THRU-CUT
 62
     5
100
AcDbLine
 10
89.93996062992126
 20
26.1875
 30
0.0
 11
95.12746062992126
 21
26.1875
 31
0.0
  0
LINE
  5
203
330
1F
100
AcDbEntity
  8
THRU-CUT
 62
     5
100
AcDbLine
 10
79.75246062992126
 20
17.9375
 30
0.0
 11
79.75246062992126
 21
18.1875
 31
0.0
  0
LINE
  5
204
330
1F
100
AcDbEntity
  8
CREASE
 62
     3
100
AcDbLine
 10
102.8149606299213
 20
26.1875
 30
0.0
 11
102.8149606299213
 21
18.1875
 31
0.0
  0
LINE
  5
205
330
1F
100
AcDbEntity
  8
CREASE
 62
     3
100
AcDbLine
 10
102.6274606299213
 20
18.1875
 30
0.0
 11
102.6274606299213
 21
26.1875
 31
0.0
  0
LINE
  5
206
330
1F
100
AcDbEntity
  8
CREASE
 62
     3
100
AcDbLine
 10
72.06496062992126
 20
18.1875
 30
0.0
 11
72.06496062992126
 21
26.1875
 31
0.0
  0
LINE
  5
207
330
1F
100
AcDbEntity
  8
THRU-CUT
 62
     5
100
AcDbLine
 10
95.12746062992126
 20
18.1875
 30
0.0
 11
95.12746062992126
 21
17.9375
 31
0.0
  0
LINE
  5
208
330
1F
100
AcDbEntity
  8
THRU-CUT
 62
     5
100
AcDbLine
 10
84.93996062992126
 20
18.1875
 30
0.0
 11
84.93996062992126
 21
17.9375
 31
0.0
  0
LINE
  5
209
330
1F
100
AcDbEntity
  8
CREASE
 62
     3
100
AcDbLine
 10
72.25246062992126
 20
9.6875
 30
0.0
 11
72.25246062992126
 21
1.6875
 31
0.0
  0
LINE
  5
20A
330
1F
100
AcDbEntity
  8
CREASE
 62
     3
100
AcDbLine
 10
113.0024606299213
 20
9.6875
 30
0.0
 11
113.0024606299213
 21
1.6875
 31
0.0
  0
LINE
  5
20B
330
1F
100
AcDbEntity
  8
THRU-CUT
 62
     5
100
AcDbLine
 10
52.9375
 20
60.1875
 30
0.0
 11
50.9375
 21
60.1875
 31
0.0
  0
LINE
  5
20C
330
1F
100
AcDbEntity
  8
THRU-CUT
 62
     5
100
AcDbLine
 10
50.9375
 20
60.1875
 30
0.0
 11
50.9375
 21
59.875
 31
0.0
  0
LINE
  5
20D
330
1F
100
AcDbEntity
  8
THRU-CUT
 62
     5
100
AcDbLine
 10
50.9375
 20
59.875
 30
0.0
 11
52.9375
 21
59.875
 31
0.0
  0
LINE
  5
20E
330
1F
100
AcDbEntity
  8
THRU-CUT
 62
     5
100
AcDbLine
 10
36.4375
 20
59.875
 30
0.0
 11
36.4375
 21
60.1875
 31
0.0
  0
LINE
  5
20F
330
1F
100
AcDbEntity
  8
THRU-CUT
 62
     5
100
AcDbLine
 10
31.1875
 20
65.5
 30
0.0
 11
31.4375
 21
65.5
 31
0.0
  0
LINE
  5
210
330
1F
100
AcDbEntity
  8
CREASE
 62
     3
100
AcDbLine
 10
72.06496062992126
 20
1.6875
 30
0.0
 11
72.06496062992126
 21
9.6875
 31
0.0
  0
LINE
  5
211
330
1F
100
AcDbEntity
  8
THRU-CUT
 62
     5
100
AcDbLine
 10
72.00246062992126
 20
1.6875
 30
0.0
 11
72.31496062992126
 21
1.6875
 31
0.0
  0
LINE
  5
212
330
1F
100
AcDbEntity
  8
PERF|000_999-090
 62
   151
100
AcDbLine
 10
72.31496062992126
 20
1.5
 30
0.0
 11
77.25246062992126
 21
1.5
 31
0.0
  0
LINE
  5
213
330
1F
100
AcDbEntity
  8
PERF|000_999-090
 62
   151
100
AcDbLine
 10
92.37746062992126
 20
1.5
 30
0.0
 11
87.43996062992126
 21
1.5
 31
0.0
  0
LINE
  5
214
330
1F
100
AcDbEntity
  8
PERF|000_999-090
 62
   151
100
AcDbLine
 10
82.18996062992126
 20
1.5
 30
0.0
 11
77.25246062992126
 21
1.5
 31
0.0
  0
LINE
  5
215
330
1F
100
AcDbEntity
  8
PERF|000_999-090
 62
   151
100
AcDbLine
 10
56.125
 20
70.5
 30
0.0
 11
56.125
 21
65.5625
 31
0.0
  0
LINE
  5
216
330
1F
100
AcDbEntity
  8
CREASE
 62
     3
100
AcDbLine
 10
82.25246062992126
 20
1.6875
 30
0.0
 11
82.25246062992126
 21
9.6875
 31
0.0
  0
LINE
  5
217
330
1F
100
AcDbEntity
  8
THRU-CUT
 62
     5
100
AcDbLine
 10
89.93996062992126
 20
9.6875
 30
0.0
 11
95.12746062992126
 21
9.6875
 31
0.0
  0
LINE
  5
218
330
1F
100
AcDbEntity
  8
PERF|000_999-090
 62
   151
100
AcDbLine
 10
82.50246062992126
 20
1.5
 30
0.0
 11
87.43996062992126
 21
1.5
 31
0.0
  0
LINE
  5
219
330
1F
100
AcDbEntity
  8
THRU-CUT
 62
     5
100
AcDbLine
 10
95.12746062992126
 20
9.9375
 30
0.0
 11
89.93996062992126
 21
9.9375
 31
0.0
  0
LINE
  5
21A
330
1F
100
AcDbEntity
  8
THRU-CUT
 62
     5
100
AcDbLine
 10
92.37746062992126
 20
1.6875
 30
0.0
 11
92.68996062992126
 21
1.6875
 31
0.0
  0
LINE
  5
21B
330
1F
100
AcDbEntity
  8
THRU-CUT
 62
     5
100
AcDbLine
 10
112.7524606299213
 20
1.6875
 30
0.0
 11
113.0649606299213
 21
1.6875
 31
0.0
  0
LINE
  5
21C
330
1F
100
AcDbEntity
  8
THRU-CUT
 62
     5
100
AcDbLine
 10
105.3149606299213
 20
9.9375
 30
0.0
 11
105.3149606299213
 21
9.6875
 31
0.0
  0
LINE
  5
21D
330
1F
100
AcDbEntity
  8
THRU-CUT
 62
     5
100
AcDbLine
 10
115.5024606299213
 20
9.9375
 30
0.0
 11
110.3149606299213
 21
9.9375
 31
0.0
  0
LINE
  5
21E
330
1F
100
AcDbEntity
  8
THRU-CUT
 62
     5
100
AcDbLine
 10
110.3149606299213
 20
9.6875
 30
0.0
 11
115.5024606299213
 21
9.6875
 31
0.0
  0
LINE
  5
21F
330
1F
100
AcDbEntity
  8
THRU-CUT
 62
     5
100
AcDbLine
 10
115.5024606299213
 20
9.9375
 30
0.0
 11
115.5024606299213
 21
9.6875
 31
0.0
  0
LINE
  5
220
330
1F
100
AcDbEntity
  8
THRU-CUT
 62
     5
100
AcDbLine
 10
61.31375000000011
 20
51.875
 30
0.0
 11
66.5625
 21
51.875
 31
0.0
  0
LINE
  5
221
330
1F
100
AcDbEntity
  8
CREASE
 62
     3
100
AcDbLine
 10
31.4375
 20
65.5
 30
0.0
 11
39.4375
 21
65.5
 31
0.0
  0
LINE
  5
222
330
1F
100
AcDbEntity
  8
THRU-CUT
 62
     5
100
AcDbLine
 10
31.4375
 20
70.5
 30
0.0
 11
34.4375
 21
70.5
 31
0.0
  0
LINE
  5
223
330
1F
100
AcDbEntity
  8
THRU-CUT
 62
     5
100
AcDbLine
 10
31.4375
 20
65.25124999999919
 30
0.0
 11
31.4375
 21
70.5
 31
0.0
  0
LINE
  5
224
330
1F
100
AcDbEntity
  8
THRU-CUT
 62
     5
100
AcDbLine
 10
39.4375
 20
65.5
 30
0.0
 11
39.6875
 21
65.5
 31
0.0
  0
LINE
  5
225
330
1F
100
AcDbEntity
  8
THRU-CUT
 62
     5
100
AcDbLine
 10
56.125
 20
65.5625
 30
0.0
 11
56.125
 21
65.5
 31
0.0
  0
LINE
  5
226
330
1F
100
AcDbEntity
  8
THRU-CUT
 62
     5
100
AcDbLine
 10
56.125
 20
65.5625
 30
0.0
 11
62.625
 21
65.5625
 31
0.0
  0
LINE
  5
227
330
1F
100
AcDbEntity
  8
THRU-CUT
 62
     5
100
AcDbLine
 10
62.625
 20
65.5625
 30
0.0
 11
62.625
 21
70.5
 31
0.0
  0
LINE
  5
228
330
1F
100
AcDbEntity
  8
THRU-CUT
 62
     5
100
AcDbLine
 10
56.3125
 20
65.25
 30
0.0
 11
56.125
 21
65.5
 31
0.0
  0
LINE
  5
229
330
1F
100
AcDbEntity
  8
THRU-CUT
 62
     5
100
AcDbLine
 10
55.9375
 20
54.875
 30
0.0
 11
55.9375
 21
56.875
 31
0.0
  0
LINE
  5
22A
330
1F
100
AcDbEntity
  8
THRU-CUT
 62
     5
100
AcDbLine
 10
56.25
 20
54.875
 30
0.0
 11
55.9375
 21
54.875
 31
0.0
  0
LINE
  5
22B
330
1F
100
AcDbEntity
  8
THRU-CUT
 62
     5
100
AcDbLine
 10
84.93996062992126
 20
9.9375
 30
0.0
 11
79.75246062992126
 21
9.9375
 31
0.0
  0
LINE
  5
22C
330
1F
100
AcDbEntity
  8
THRU-CUT
 62
     5
100
AcDbLine
 10
84.93996062992126
 20
9.9375
 30
0.0
 11
84.93996062992126
 21
9.6875
 31
0.0
  0
LINE
  5
22D
330
1F
100
AcDbEntity
  8
THRU-CUT
 62
     5
100
AcDbLine
 10
82.18996062992126
 20
1.6875
 30
0.0
 11
82.50246062992126
 21
1.6875
 31
0.0
  0
LINE
  5
22E
330
1F
100
AcDbEntity
  8
THRU-CUT
 62
     5
100
AcDbLine
 10
89.93996062992126
 20
9.6875
 30
0.0
 11
89.93996062992126
 21
9.9375
 31
0.0
  0
LINE
  5
22F
330
1F
100
AcDbEntity
  8
THRU-CUT
 62
     5
100
AcDbLine
 10
52.88725952641916
 20
70.6875
 30
0.0
 11
50.98774047358084
 21
70.6875
 31
0.0
  0
LINE
  5
230
330
1F
100
AcDbEntity
  8
THRU-CUT
 62
     5
100
AcDbLine
 10
50.98774047358084
 20
70.6875
 30
0.0
 11
50.9375
 21
70.5
 31
0.0
  0
LINE
  5
231
330
1F
100
AcDbEntity
  8
THRU-CUT
 62
     5
100
AcDbLine
 10
61.3125
 20
60.125
 30
0.0
 11
61.5625
 21
59.875
 31
0.0
  0
LINE
  5
232
330
1F
100
AcDbEntity
  8
THRU-CUT
 62
     5
100
AcDbLine
 10
61.25
 20
65.25
 30
0.0
 11
56.3125
 21
65.25
 31
0.0
  0
LINE
  5
233
330
1F
100
AcDbEntity
  8
CREASE
 62
     3
100
AcDbLine
 10
52.9375
 20
60.1875
 30
0.0
 11
56.3125
 21
60.1875
 31
0.0
  0
LINE
  5
234
330
1F
100
AcDbEntity
  8
THRU-CUT
 62
     5
100
AcDbLine
 10
52.9375
 20
59.875
 30
0.0
 11
52.9375
 21
60.1875
 31
0.0
  0
LINE
  5
235
330
1F
100
AcDbEntity
  8
THRU-CUT
 62
     5
100
AcDbLine
 10
95.12746062992126
 20
9.9375
 30
0.0
 11
95.12746062992126
 21
9.6875
 31
0.0
  0
LINE
  5
236
330
1F
100
AcDbEntity
  8
THRU-CUT
 62
     5
100
AcDbLine
 10
79.75246062992126
 20
9.6875
 30
0.0
 11
79.75246062992126
 21
9.9375
 31
0.0
  0
LINE
  5
237
330
1F
100
AcDbEntity
  8
THRU-CUT
 62
     5
100
AcDbLine
 10
79.75246062992126
 20
9.6875
 30
0.0
 11
84.93996062992126
 21
9.6875
 31
0.0
  0
LINE
  5
238
330
1F
100
AcDbEntity
  8
THRU-CUT
 62
     5
100
AcDbLine
 10
36.4375
 20
70.5
 30
0.0
 11
36.38725952641916
 21
70.6875
 31
0.0
  0
LINE
  5
239
330
1F
100
AcDbEntity
  8
THRU-CUT
 62
     5
100
AcDbLine
 10
34.4375
 20
70.5
 30
0.0
 11
34.48774047358084
 21
70.6875
 31
0.0
  0
LINE
  5
23A
330
1F
100
AcDbEntity
  8
THRU-CUT
 62
     5
100
AcDbLine
 10
34.48774047358084
 20
70.6875
 30
0.0
 11
36.38725952641916
 21
70.6875
 31
0.0
  0
LINE
  5
23B
330
1F
100
AcDbEntity
  8
THRU-CUT
 62
     5
100
AcDbLine
 10
36.4375
 20
70.5
 30
0.0
 11
39.4375
 21
70.5
 31
0.0
  0
LINE
  5
23C
330
1F
100
AcDbEntity
  8
CREASE
 62
     3
100
AcDbLine
 10
39.6875
 20
65.5
 30
0.0
 11
47.6875
 21
65.5
 31
0.0
  0
LINE
  5
23D
330
1F
100
AcDbEntity
  8
THRU-CUT
 62
     5
100
AcDbLine
 10
17.9375
 20
70.5
 30
0.0
 11
17.98774047358084
 21
70.6875
 31
0.0
  0
LINE
  5
23E
330
1F
100
AcDbEntity
  8
THRU-CUT
 62
     5
100
AcDbLine
 10
14.9375
 20
70.5
 30
0.0
 11
17.9375
 21
70.5
 31
0.0
  0
LINE
  5
23F
330
1F
100
AcDbEntity
  8
THRU-CUT
 62
     5
100
AcDbLine
 10
19.9375
 20
70.5
 30
0.0
 11
19.88725952641916
 21
70.6875
 31
0.0
  0
LINE
  5
240
330
1F
100
AcDbEntity
  8
THRU-CUT
 62
     5
100
AcDbLine
 10
6.375
 20
56.875
 30
0.0
 11
6.375
 21
54.875
 31
0.0
  0
LINE
  5
241
330
1F
100
AcDbEntity
  8
CREASE
 62
     3
100
AcDbLine
 10
36.4375
 20
60.1875
 30
0.0
 11
42.6875
 21
60.1875
 31
0.0
  0
LINE
  5
242
330
1F
100
AcDbEntity
  8
THRU-CUT
 62
     5
100
AcDbLine
 10
31.1875
 20
65.5
 30
0.0
 11
31.1875
 21
70.5
 31
0.0
  0
LINE
  5
243
330
1F
100
AcDbEntity
  8
CREASE
 62
     3
100
AcDbLine
 10
56.25
 20
56.875
 30
0.0
 11
56.25
 21
60.125
 31
0.0
  0
LINE
  5
244
330
1F
100
AcDbEntity
  8
CREASE
 62
     3
100
AcDbLine
 10
56.25
 20
60.125
 30
0.0
 11
61.25
 21
60.125
 31
0.0
  0
LINE
  5
245
330
1F
100
AcDbEntity
  8
THRU-CUT
 62
     5
100
AcDbLine
 10
66.5625
 20
59.875
 30
0.0
 11
66.5625
 21
56.875
 31
0.0
  0
LINE
  5
246
330
1F
100
AcDbEntity
  8
THRU-CUT
 62
     5
100
AcDbLine
 10
66.75
 20
56.82475952641916
 30
0.0
 11
66.5625
 21
56.875
 31
0.0
  0
LINE
  5
247
330
1F
100
AcDbEntity
  8
THRU-CUT
 62
     5
100
AcDbLine
 10
66.75
 20
54.92524047358084
 30
0.0
 11
66.5625
 21
54.875
 31
0.0
  0
LINE
  5
248
330
1F
100
AcDbEntity
  8
THRU-CUT
 62
     5
100
AcDbLine
 10
66.75
 20
56.82475952641916
 30
0.0
 11
66.75
 21
54.92524047358084
 31
0.0
  0
LINE
  5
249
330
1F
100
AcDbEntity
  8
THRU-CUT
 62
     5
100
AcDbLine
 10
56.3125
 20
60.1875
 30
0.0
 11
56.3125
 21
65.25
 31
0.0
  0
LINE
  5
24A
330
1F
100
AcDbEntity
  8
THRU-CUT
 62
     5
100
AcDbLine
 10
61.5625
 20
59.875
 30
0.0
 11
66.5625
 21
59.875
 31
0.0
  0
LINE
  5
24B
330
1F
100
AcDbEntity
  8
THRU-CUT
 62
     5
100
AcDbLine
 10
61.25
 20
60.125
 30
0.0
 11
61.3125
 21
60.125
 31
0.0
  0
LINE
  5
24C
330
1F
100
AcDbEntity
  8
THRU-CUT
 62
     5
100
AcDbLine
 10
56.25
 20
56.875
 30
0.0
 11
56.25
 21
54.875
 31
0.0
  0
LINE
  5
24D
330
1F
100
AcDbEntity
  8
THRU-CUT
 62
     5
100
AcDbLine
 10
39.6875
 20
65.25124999999919
 30
0.0
 11
39.6875
 21
70.5
 31
0.0
  0
LINE
  5
24E
330
1F
100
AcDbEntity
  8
THRU-CUT
 62
     5
100
AcDbLine
 10
61.5625
 20
51.875
 30
0.0
 11
61.5625
 21
51.625
 31
0.0
  0
LINE
  5
24F
330
1F
100
AcDbEntity
  8
THRU-CUT
 62
     5
100
AcDbLine
 10
47.6875
 20
65.5
 30
0.0
 11
47.6875
 21
70.5
 31
0.0
  0
LINE
  5
250
330
1F
100
AcDbEntity
  8
THRU-CUT
 62
     5
100
AcDbLine
 10
47.9375
 20
65.5
 30
0.0
 11
47.6875
 21
65.5
 31
0.0
  0
LINE
  5
251
330
1F
100
AcDbEntity
  8
THRU-CUT
 62
     5
100
AcDbLine
 10
47.9375
 20
70.5
 30
0.0
 11
47.9375
 21
65.25124999999919
 31
0.0
  0
LINE
  5
252
330
1F
100
AcDbEntity
  8
THRU-CUT
 62
     5
100
AcDbLine
 10
42.6875
 20
59.875
 30
0.0
 11
44.6875
 21
59.875
 31
0.0
  0
LINE
  5
253
330
1F
100
AcDbEntity
  8
THRU-CUT
 62
     5
100
AcDbLine
 10
42.6875
 20
60.1875
 30
0.0
 11
42.6875
 21
59.875
 31
0.0
  0
LINE
  5
254
330
1F
100
AcDbEntity
  8
THRU-CUT
 62
     5
100
AcDbLine
 10
44.6875
 20
59.875
 30
0.0
 11
44.6875
 21
60.1875
 31
0.0
  0
LINE
  5
255
330
1F
100
AcDbEntity
  8
THRU-CUT
 62
     5
100
AcDbLine
 10
44.6875
 20
60.1875
 30
0.0
 11
42.6875
 21
60.1875
 31
0.0
  0
LINE
  5
256
330
1F
100
AcDbEntity
  8
THRU-CUT
 62
     5
100
AcDbLine
 10
11.6875
 20
59.875
 30
0.0
 11
11.6875
 21
60.1875
 31
0.0
  0
LINE
  5
257
330
1F
100
AcDbEntity
  8
CREASE
 62
     3
100
AcDbLine
 10
14.9375
 20
65.5
 30
0.0
 11
22.9375
 21
65.5
 31
0.0
  0
LINE
  5
258
330
1F
100
AcDbEntity
  8
CREASE
 62
     3
100
AcDbLine
 10
19.9375
 20
60.1875
 30
0.0
 11
26.1875
 21
60.1875
 31
0.0
  0
LINE
  5
259
330
1F
100
AcDbEntity
  8
THRU-CUT
 62
     5
100
AcDbLine
 10
26.1875
 20
70.5
 30
0.0
 11
26.23774047358083
 21
70.6875
 31
0.0
  0
LINE
  5
25A
330
1F
100
AcDbEntity
  8
THRU-CUT
 62
     5
100
AcDbLine
 10
26.23774047358083
 20
70.6875
 30
0.0
 11
28.13725952641916
 21
70.6875
 31
0.0
  0
LINE
  5
25B
330
1F
100
AcDbEntity
  8
THRU-CUT
 62
     5
100
AcDbLine
 10
62.625
 20
70.5
 30
0.0
 11
52.9375
 21
70.5
 31
0.0
  0
LINE
  5
25C
330
1F
100
AcDbEntity
  8
THRU-CUT
 62
     5
100
AcDbLine
 10
52.88725952641916
 20
70.6875
 30
0.0
 11
52.9375
 21
70.5
 31
0.0
  0
LINE
  5
25D
330
1F
100
AcDbEntity
  8
THRU-CUT
 62
     5
100
AcDbLine
 10
61.25
 20
60.125
 30
0.0
 11
61.25
 21
65.25
 31
0.0
  0
LINE
  5
25E
330
1F
100
AcDbEntity
  8
THRU-CUT
 62
     5
100
AcDbLine
 10
56.25
 20
60.125
 30
0.0
 11
56.3125
 21
60.1875
 31
0.0
  0
LINE
  5
25F
330
1F
100
AcDbEntity
  8
THRU-CUT
 62
     5
100
AcDbLine
 10
42.73774047358084
 20
70.6875
 30
0.0
 11
44.63725952641916
 21
70.6875
 31
0.0
  0
LINE
  5
260
330
1F
100
AcDbEntity
  8
THRU-CUT
 62
     5
100
AcDbLine
 10
44.6875
 20
70.5
 30
0.0
 11
47.6875
 21
70.5
 31
0.0
  0
LINE
  5
261
330
1F
100
AcDbEntity
  8
THRU-CUT
 62
     5
100
AcDbLine
 10
44.6875
 20
70.5
 30
0.0
 11
44.63725952641916
 21
70.6875
 31
0.0
  0
LINE
  5
262
330
1F
100
AcDbEntity
  8
THRU-CUT
 62
     5
100
AcDbLine
 10
34.4375
 20
59.875
 30
0.0
 11
36.4375
 21
59.875
 31
0.0
  0
LINE
  5
263
330
1F
100
AcDbEntity
  8
THRU-CUT
 62
     5
100
AcDbLine
 10
34.4375
 20
60.1875
 30
0.0
 11
34.4375
 21
59.875
 31
0.0
  0
LINE
  5
264
330
1F
100
AcDbEntity
  8
THRU-CUT
 62
     5
100
AcDbLine
 10
36.4375
 20
60.1875
 30
0.0
 11
34.4375
 21
60.1875
 31
0.0
  0
LINE
  5
265
330
1F
100
AcDbEntity
  8
THRU-CUT
 62
     5
100
AcDbLine
 10
66.5625
 20
43.625
 30
0.0
 11
61.31375000000011
 21
43.625
 31
0.0
  0
LINE
  5
266
330
1F
100
AcDbEntity
  8
THRU-CUT
 62
     5
100
AcDbLine
 10
66.5625
 20
40.375
 30
0.0
 11
66.5625
 21
43.375
 31
0.0
  0
LINE
  5
267
330
1F
100
AcDbEntity
  8
THRU-CUT
 62
     5
100
AcDbLine
 10
66.75
 20
38.42524047358083
 30
0.0
 11
66.75
 21
40.32475952641916
 31
0.0
  0
LINE
  5
268
330
1F
100
AcDbEntity
  8
THRU-CUT
 62
     5
100
AcDbLine
 10
66.5625
 20
38.375
 30
0.0
 11
66.75
 21
38.42524047358083
 31
0.0
  0
LINE
  5
269
330
1F
100
AcDbEntity
  8
THRU-CUT
 62
     5
100
AcDbLine
 10
61.5625
 20
43.375
 30
0.0
 11
61.5625
 21
43.625
 31
0.0
  0
LINE
  5
26A
330
1F
100
AcDbEntity
  8
THRU-CUT
 62
     5
100
AcDbLine
 10
56.25
 20
38.375
 30
0.0
 11
55.9375
 21
38.375
 31
0.0
  0
LINE
  5
26B
330
1F
100
AcDbEntity
  8
THRU-CUT
 62
     5
100
AcDbLine
 10
55.9375
 20
38.375
 30
0.0
 11
55.9375
 21
40.375
 31
0.0
  0
LINE
  5
26C
330
1F
100
AcDbEntity
  8
THRU-CUT
 62
     5
100
AcDbLine
 10
55.9375
 20
40.375
 30
0.0
 11
56.25
 21
40.375
 31
0.0
  0
LINE
  5
26D
330
1F
100
AcDbEntity
  8
THRU-CUT
 62
     5
100
AcDbLine
 10
66.5625
 20
40.375
 30
0.0
 11
66.75
 21
40.32475952641916
 31
0.0
  0
LINE
  5
26E
330
1F
100
AcDbEntity
  8
THRU-CUT
 62
     5
100
AcDbLine
 10
61.5625
 20
43.375
 30
0.0
 11
66.5625
 21
43.375
 31
0.0
  0
LINE
  5
26F
330
1F
100
AcDbEntity
  8
THRU-CUT
 62
     5
100
AcDbLine
 10
28.1875
 20
59.875
 30
0.0
 11
28.1875
 21
60.1875
 31
0.0
  0
LINE
  5
270
330
1F
100
AcDbEntity
  8
THRU-CUT
 62
     5
100
AcDbLine
 10
23.1875
 20
65.25124999999919
 30
0.0
 11
23.1875
 21
70.5
 31
0.0
  0
LINE
  5
271
330
1F
100
AcDbEntity
  8
THRU-CUT
 62
     5
100
AcDbLine
 10
22.9375
 20
65.5
 30
0.0
 11
23.1875
 21
65.5
 31
0.0
  0
LINE
  5
272
330
1F
100
AcDbEntity
  8
THRU-CUT
 62
     5
100
AcDbLine
 10
19.9375
 20
60.1875
 30
0.0
 11
17.9375
 21
60.1875
 31
0.0
  0
LINE
  5
273
330
1F
100
AcDbEntity
  8
THRU-CUT
 62
     5
100
AcDbLine
 10
19.9375
 20
59.875
 30
0.0
 11
19.9375
 21
60.1875
 31
0.0
  0
LINE
  5
274
330
1F
100
AcDbEntity
  8
THRU-CUT
 62
     5
100
AcDbLine
 10
39.6875
 20
70.5
 30
0.0
 11
42.6875
 21
70.5
 31
0.0
  0
LINE
  5
275
330
1F
100
AcDbEntity
  8
THRU-CUT
 62
     5
100
AcDbLine
 10
39.4375
 20
65.5
 30
0.0
 11
39.4375
 21
70.5
 31
0.0
  0
LINE
  5
276
330
1F
100
AcDbEntity
  8
THRU-CUT
 62
     5
100
AcDbLine
 10
66.5625
 20
43.625
 30
0.0
 11
66.5625
 21
46.625
 31
0.0
  0
LINE
  5
277
330
1F
100
AcDbEntity
  8
CREASE
 62
     3
100
AcDbLine
 10
56.25
 20
40.375
 30
0.0
 11
56.25
 21
46.625
 31
0.0
  0
LINE
  5
278
330
1F
100
AcDbEntity
  8
CREASE
 62
     3
100
AcDbLine
 10
61.5625
 20
43.625
 30
0.0
 11
61.5625
 21
51.625
 31
0.0
  0
LINE
  5
279
330
1F
100
AcDbEntity
  8
THRU-CUT
 62
     5
100
AcDbLine
 10
22.9375
 20
65.5
 30
0.0
 11
22.9375
 21
70.5
 31
0.0
  0
LINE
  5
27A
330
1F
100
AcDbEntity
  8
CREASE
 62
     3
100
AcDbLine
 10
11.6875
 20
60.1875
 30
0.0
 11
17.9375
 21
60.1875
 31
0.0
  0
LINE
  5
27B
330
1F
100
AcDbEntity
  8
THRU-CUT
 62
     5
100
AcDbLine
 10
11.6875
 20
70.5
 30
0.0
 11
14.6875
 21
70.5
 31
0.0
  0
LINE
  5
27C
330
1F
100
AcDbEntity
  8
THRU-CUT
 62
     5
100
AcDbLine
 10
11.6875
 20
70.5
 30
0.0
 11
11.63725952641916
 21
70.6875
 31
0.0
  0
LINE
  5
27D
330
1F
100
AcDbEntity
  8
THRU-CUT
 62
     5
100
AcDbLine
 10
66.5625
 20
46.625
 30
0.0
 11
66.75
 21
46.67524047358084
 31
0.0
  0
LINE
  5
27E
330
1F
100
AcDbEntity
  8
THRU-CUT
 62
     5
100
AcDbLine
 10
66.5625
 20
48.625
 30
0.0
 11
66.5625
 21
51.625
 31
0.0
  0
LINE
  5
27F
330
1F
100
AcDbEntity
  8
THRU-CUT
 62
     5
100
AcDbLine
 10
66.5625
 20
48.625
 30
0.0
 11
66.75
 21
48.57475952641916
 31
0.0
  0
LINE
  5
280
330
1F
100
AcDbEntity
  8
THRU-CUT
 62
     5
100
AcDbLine
 10
56.25
 20
48.625
 30
0.0
 11
56.25
 21
46.625
 31
0.0
  0
LINE
  5
281
330
1F
100
AcDbEntity
  8
THRU-CUT
 62
     5
100
AcDbLine
 10
55.9375
 20
48.625
 30
0.0
 11
56.25
 21
48.625
 31
0.0
  0
LINE
  5
282
330
1F
100
AcDbEntity
  8
THRU-CUT
 62
     5
100
AcDbLine
 10
55.9375
 20
46.625
 30
0.0
 11
55.9375
 21
48.625
 31
0.0
  0
LINE
  5
283
330
1F
100
AcDbEntity
  8
THRU-CUT
 62
     5
100
AcDbLine
 10
56.25
 20
46.625
 30
0.0
 11
55.9375
 21
46.625
 31
0.0
  0
LINE
  5
284
330
1F
100
AcDbEntity
  8
THRU-CUT
 62
     5
100
AcDbLine
 10
61.5625
 20
51.625
 30
0.0
 11
66.5625
 21
51.625
 31
0.0
  0
LINE
  5
285
330
1F
100
AcDbEntity
  8
THRU-CUT
 62
     5
100
AcDbLine
 10
69.56496062992126
 20
34.4375
 30
0.0
 11
69.56496062992126
 21
34.6875
 31
0.0
  0
LINE
  5
286
330
1F
100
AcDbEntity
  8
THRU-CUT
 62
     5
100
AcDbLine
 10
17.9375
 20
60.1875
 30
0.0
 11
17.9375
 21
59.875
 31
0.0
  0
LINE
  5
287
330
1F
100
AcDbEntity
  8
THRU-CUT
 62
     5
100
AcDbLine
 10
14.6875
 20
65.5
 30
0.0
 11
14.6875
 21
70.5
 31
0.0
  0
LINE
  5
288
330
1F
100
AcDbEntity
  8
CREASE
 62
     3
100
AcDbLine
 10
56.25
 20
23.875
 30
0.0
 11
56.25
 21
30.125
 31
0.0
  0
LINE
  5
289
330
1F
100
AcDbEntity
  8
THRU-CUT
 62
     5
100
AcDbLine
 10
19.9375
 20
70.5
 30
0.0
 11
22.9375
 21
70.5
 31
0.0
  0
LINE
  5
28A
330
1F
100
AcDbEntity
  8
THRU-CUT
 62
     5
100
AcDbLine
 10
61.25
 20
10.375
 30
0.0
 11
61.3125
 21
10.375
 31
0.0
  0
LINE
  5
28B
330
1F
100
AcDbEntity
  8
THRU-CUT
 62
     5
100
AcDbLine
 10
56.25
 20
10.375
 30
0.0
 11
56.3125
 21
10.3125
 31
0.0
  0
LINE
  5
28C
330
1F
100
AcDbEntity
  8
THRU-CUT
 62
     5
100
AcDbLine
 10
66.5625
 20
13.625
 30
0.0
 11
66.75
 21
13.67524047358083
 31
0.0
  0
LINE
  5
28D
330
1F
100
AcDbEntity
  8
THRU-CUT
 62
     5
100
AcDbLine
 10
28.1875
 20
60.1875
 30
0.0
 11
26.1875
 21
60.1875
 31
0.0
  0
LINE
  5
28E
330
1F
100
AcDbEntity
  8
THRU-CUT
 62
     5
100
AcDbLine
 10
14.6875
 20
65.5
 30
0.0
 11
14.9375
 21
65.5
 31
0.0
  0
LINE
  5
28F
330
1F
100
AcDbEntity
  8
THRU-CUT
 62
     5
100
AcDbLine
 10
14.9375
 20
70.5
 30
0.0
 11
14.9375
 21
65.25124999999919
 31
0.0
  0
LINE
  5
290
330
1F
100
AcDbEntity
  8
THRU-CUT
 62
     5
100
AcDbLine
 10
42.6875
 20
70.5
 30
0.0
 11
42.73774047358084
 21
70.6875
 31
0.0
  0
LINE
  5
291
330
1F
100
AcDbEntity
  8
THRU-CUT
 62
     5
100
AcDbLine
 10
56.25
 20
40.375
 30
0.0
 11
56.25
 21
38.375
 31
0.0
  0
LINE
  5
292
330
1F
100
AcDbEntity
  8
THRU-CUT
 62
     5
100
AcDbLine
 10
17.98774047358084
 20
70.6875
 30
0.0
 11
19.88725952641916
 21
70.6875
 31
0.0
  0
LINE
  5
293
330
1F
100
AcDbEntity
  8
THRU-CUT
 62
     5
100
AcDbLine
 10
6.6875
 20
54.875
 30
0.0
 11
6.6875
 21
56.875
 31
0.0
  0
LINE
  5
294
330
1F
100
AcDbEntity
  8
THRU-CUT
 62
     5
100
AcDbLine
 10
1.375
 20
60.125
 30
0.0
 11
1.375
 21
65.25
 31
0.0
  0
LINE
  5
295
330
1F
100
AcDbEntity
  8
THRU-CUT
 62
     5
100
AcDbLine
 10
6.6875
 20
56.875
 30
0.0
 11
6.375
 21
56.875
 31
0.0
  0
LINE
  5
296
330
1F
100
AcDbEntity
  8
THRU-CUT
 62
     5
100
AcDbLine
 10
6.375
 20
38.375
 30
0.0
 11
6.6875
 21
38.375
 31
0.0
  0
LINE
  5
297
330
1F
100
AcDbEntity
  8
CREASE
 62
     3
100
AcDbLine
 10
6.375
 20
40.375
 30
0.0
 11
6.375
 21
46.625
 31
0.0
  0
LINE
  5
298
330
1F
100
AcDbEntity
  8
CREASE
 62
     3
100
AcDbLine
 10
1.0625
 20
43.625
 30
0.0
 11
1.0625
 21
51.625
 31
0.0
  0
LINE
  5
299
330
1F
100
AcDbEntity
  8
THRU-CUT
 62
     5
100
AcDbLine
 10
1.0625
 20
43.375
 30
0.0
 11
1.0625
 21
43.625
 31
0.0
  0
LINE
  5
29A
330
1F
100
AcDbEntity
  8
THRU-CUT
 62
     5
100
AcDbLine
 10
6.375
 20
40.375
 30
0.0
 11
6.375
 21
38.375
 31
0.0
  0
LINE
  5
29B
330
1F
100
AcDbEntity
  8
THRU-CUT
 62
     5
100
AcDbLine
 10
6.6875
 20
40.375
 30
0.0
 11
6.375
 21
40.375
 31
0.0
  0
LINE
  5
29C
330
1F
100
AcDbEntity
  8
THRU-CUT
 62
     5
100
AcDbLine
 10
1.0625
 20
51.875
 30
0.0
 11
1.0625
 21
51.625
 31
0.0
  0
LINE
  5
29D
330
1F
100
AcDbEntity
  8
THRU-CUT
 62
     5
100
AcDbLine
 10
23.1875
 20
70.5
 30
0.0
 11
26.1875
 21
70.5
 31
0.0
  0
LINE
  5
29E
330
1F
100
AcDbEntity
  8
THRU-CUT
 62
     5
100
AcDbLine
 10
26.1875
 20
60.1875
 30
0.0
 11
26.1875
 21
59.875
 31
0.0
  0
LINE
  5
29F
330
1F
100
AcDbEntity
  8
THRU-CUT
 62
     5
100
AcDbLine
 10
28.1875
 20
70.5
 30
0.0
 11
28.13725952641916
 21
70.6875
 31
0.0
  0
LINE
  5
2A0
330
1F
100
AcDbEntity
  8
THRU-CUT
 62
     5
100
AcDbLine
 10
26.1875
 20
59.875
 30
0.0
 11
28.1875
 21
59.875
 31
0.0
  0
LINE
  5
2A1
330
1F
100
AcDbEntity
  8
THRU-CUT
 62
     5
100
AcDbLine
 10
69.56496062992126
 20
26.1875
 30
0.0
 11
69.56496062992126
 21
26.4375
 31
0.0
  0
LINE
  5
2A2
330
1F
100
AcDbEntity
  8
THRU-CUT
 62
     5
100
AcDbLine
 10
66.75
 20
30.17524047358084
 30
0.0
 11
66.75
 21
32.07475952641916
 31
0.0
  0
LINE
  5
2A3
330
1F
100
AcDbEntity
  8
THRU-CUT
 62
     5
100
AcDbLine
 10
66.5625
 20
30.125
 30
0.0
 11
66.75
 21
30.17524047358084
 31
0.0
  0
LINE
  5
2A4
330
1F
100
AcDbEntity
  8
THRU-CUT
 62
     5
100
AcDbLine
 10
56.25
 20
32.125
 30
0.0
 11
56.25
 21
30.125
 31
0.0
  0
LINE
  5
2A5
330
1F
100
AcDbEntity
  8
THRU-CUT
 62
     5
100
AcDbLine
 10
6.6875
 20
48.625
 30
0.0
 11
6.375
 21
48.625
 31
0.0
  0
LINE
  5
2A6
330
1F
100
AcDbEntity
  8
THRU-CUT
 62
     5
100
AcDbLine
 10
17.9375
 20
59.875
 30
0.0
 11
19.9375
 21
59.875
 31
0.0
  0
LINE
  5
2A7
330
1F
100
AcDbEntity
  8
THRU-CUT
 62
     5
100
AcDbLine
 10
69.56496062992126
 20
42.6875
 30
0.0
 11
69.56496062992126
 21
42.9375
 31
0.0
  0
LINE
  5
2A8
330
1F
100
AcDbEntity
  8
THRU-CUT
 62
     5
100
AcDbLine
 10
66.75
 20
46.67524047358084
 30
0.0
 11
66.75
 21
48.57475952641916
 31
0.0
  0
LINE
  5
2A9
330
1F
100
AcDbEntity
  8
THRU-CUT
 62
     5
100
AcDbLine
 10
61.5625
 20
18.625
 30
0.0
 11
61.5625
 21
18.875
 31
0.0
  0
LINE
  5
2AA
330
1F
100
AcDbEntity
  8
THRU-CUT
 62
     5
100
AcDbLine
 10
52.9375
 20
10.3125
 30
0.0
 11
50.9375
 21
10.3125
 31
0.0
  0
LINE
  5
2AB
330
1F
100
AcDbEntity
  8
THRU-CUT
 62
     5
100
AcDbLine
 10
50.9375
 20
10.3125
 30
0.0
 11
50.9375
 21
10.625
 31
0.0
  0
LINE
  5
2AC
330
1F
100
AcDbEntity
  8
THRU-CUT
 62
     5
100
AcDbLine
 10
50.9375
 20
10.625
 30
0.0
 11
52.9375
 21
10.625
 31
0.0
  0
LINE
  5
2AD
330
1F
100
AcDbEntity
  8
THRU-CUT
 62
     5
100
AcDbLine
 10
61.5625
 20
10.625
 30
0.0
 11
66.5625
 21
10.625
 31
0.0
  0
LINE
  5
2AE
330
1F
100
AcDbEntity
  8
THRU-CUT
 62
     5
100
AcDbLine
 10
61.25
 20
10.375
 30
0.0
 11
61.25
 21
5.25
 31
0.0
  0
LINE
  5
2AF
330
1F
100
AcDbEntity
  8
PERF|000_999-090
 62
   151
100
AcDbLine
 10
6.5
 20
70.5
 30
0.0
 11
6.5
 21
65.5625
 31
0.0
  0
LINE
  5
2B0
330
1F
100
AcDbEntity
  8
THRU-CUT
 62
     5
100
AcDbLine
 10
6.5
 20
65.5625
 30
0.0
 11
6.5
 21
65.5
 31
0.0
  0
LINE
  5
2B1
330
1F
100
AcDbEntity
  8
THRU-CUT
 62
     5
100
AcDbLine
 10
6.3125
 20
65.25
 30
0.0
 11
6.5
 21
65.5
 31
0.0
  0
LINE
  5
2B2
330
1F
100
AcDbEntity
  8
THRU-CUT
 62
     5
100
AcDbLine
 10
6.3125
 20
60.1875
 30
0.0
 11
6.3125
 21
65.25
 31
0.0
  0
LINE
  5
2B3
330
1F
100
AcDbEntity
  8
THRU-CUT
 62
     5
100
AcDbLine
 10
1.375
 20
65.25
 30
0.0
 11
6.3125
 21
65.25
 31
0.0
  0
LINE
  5
2B4
330
1F
100
AcDbEntity
  8
THRU-CUT
 62
     5
100
AcDbLine
 10
6.375
 20
54.875
 30
0.0
 11
6.6875
 21
54.875
 31
0.0
  0
LINE
  5
2B5
330
1F
100
AcDbEntity
  8
THRU-CUT
 62
     5
100
AcDbLine
 10
6.375
 20
48.625
 30
0.0
 11
6.375
 21
46.625
 31
0.0
  0
LINE
  5
2B6
330
1F
100
AcDbEntity
  8
THRU-CUT
 62
     5
100
AcDbLine
 10
-3.9375
 20
43.625
 30
0.0
 11
1.31125
 21
43.625
 31
0.0
  0
LINE
  5
2B7
330
1F
100
AcDbEntity
  8
THRU-CUT
 62
     5
100
AcDbLine
 10
6.6875
 20
38.375
 30
0.0
 11
6.6875
 21
40.375
 31
0.0
  0
LINE
  5
2B8
330
1F
100
AcDbEntity
  8
THRU-CUT
 62
     5
100
AcDbLine
 10
61.5625
 20
26.875
 30
0.0
 11
66.5625
 21
26.875
 31
0.0
  0
LINE
  5
2B9
330
1F
100
AcDbEntity
  8
THRU-CUT
 62
     5
100
AcDbLine
 10
61.5625
 20
26.875
 30
0.0
 11
61.5625
 21
27.125
 31
0.0
  0
LINE
  5
2BA
330
1F
100
AcDbEntity
  8
THRU-CUT
 62
     5
100
AcDbLine
 10
6.6875
 20
30.125
 30
0.0
 11
6.6875
 21
32.125
 31
0.0
  0
LINE
  5
2BB
330
1F
100
AcDbEntity
  8
THRU-CUT
 62
     5
100
AcDbLine
 10
36.4375
 20
10.625
 30
0.0
 11
36.4375
 21
10.3125
 31
0.0
  0
LINE
  5
2BC
330
1F
100
AcDbEntity
  8
THRU-CUT
 62
     5
100
AcDbLine
 10
34.4375
 20
10.625
 30
0.0
 11
36.4375
 21
10.625
 31
0.0
  0
LINE
  5
2BD
330
1F
100
AcDbEntity
  8
THRU-CUT
 62
     5
100
AcDbLine
 10
34.4375
 20
10.3125
 30
0.0
 11
34.4375
 21
10.625
 31
0.0
  0
LINE
  5
2BE
330
1F
100
AcDbEntity
  8
CREASE
 62
     3
100
AcDbLine
 10
56.25
 20
10.375
 30
0.0
 11
61.25
 21
10.375
 31
0.0
  0
LINE
  5
2BF
330
1F
100
AcDbEntity
  8
THRU-CUT
 62
     5
100
AcDbLine
 10
66.5625
 20
21.875
 30
0.0
 11
66.75
 21
21.92524047358084
 31
0.0
  0
LINE
  5
2C0
330
1F
100
AcDbEntity
  8
THRU-CUT
 62
     5
100
AcDbLine
 10
56.25
 20
21.875
 30
0.0
 11
55.9375
 21
21.875
 31
0.0
  0
LINE
  5
2C1
330
1F
100
AcDbEntity
  8
THRU-CUT
 62
     5
100
AcDbLine
 10
6.375
 20
46.625
 30
0.0
 11
6.6875
 21
46.625
 31
0.0
  0
LINE
  5
2C2
330
1F
100
AcDbEntity
  8
THRU-CUT
 62
     5
100
AcDbLine
 10
6.6875
 20
46.625
 30
0.0
 11
6.6875
 21
48.625
 31
0.0
  0
LINE
  5
2C3
330
1F
100
AcDbEntity
  8
THRU-CUT
 62
     5
100
AcDbLine
 10
66.5625
 20
27.125
 30
0.0
 11
61.31375000000011
 21
27.125
 31
0.0
  0
LINE
  5
2C4
330
1F
100
AcDbEntity
  8
THRU-CUT
 62
     5
100
AcDbLine
 10
55.9375
 20
21.875
 30
0.0
 11
55.9375
 21
23.875
 31
0.0
  0
LINE
  5
2C5
330
1F
100
AcDbEntity
  8
THRU-CUT
 62
     5
100
AcDbLine
 10
66.75
 20
21.92524047358084
 30
0.0
 11
66.75
 21
23.82475952641916
 31
0.0
  0
LINE
  5
2C6
330
1F
100
AcDbEntity
  8
THRU-CUT
 62
     5
100
AcDbLine
 10
56.25
 20
23.875
 30
0.0
 11
56.25
 21
21.875
 31
0.0
  0
LINE
  5
2C7
330
1F
100
AcDbEntity
  8
THRU-CUT
 62
     5
100
AcDbLine
 10
1.3125
 20
60.125
 30
0.0
 11
1.0625
 21
59.875
 31
0.0
  0
LINE
  5
2C8
330
1F
100
AcDbEntity
  8
THRU-CUT
 62
     5
100
AcDbLine
 10
1.375
 20
60.125
 30
0.0
 11
1.3125
 21
60.125
 31
0.0
  0
LINE
  5
2C9
330
1F
100
AcDbEntity
  8
THRU-CUT
 62
     5
100
AcDbLine
 10
6.375
 20
60.125
 30
0.0
 11
6.3125
 21
60.1875
 31
0.0
  0
LINE
  5
2CA
330
1F
100
AcDbEntity
  8
CREASE
 62
     3
100
AcDbLine
 10
6.375
 20
56.875
 30
0.0
 11
6.375
 21
60.125
 31
0.0
  0
LINE
  5
2CB
330
1F
100
AcDbEntity
  8
CREASE
 62
     3
100
AcDbLine
 10
6.375
 20
60.125
 30
0.0
 11
1.375
 21
60.125
 31
0.0
  0
LINE
  5
2CC
330
1F
100
AcDbEntity
  8
THRU-CUT
 62
     5
100
AcDbLine
 10
61.5625
 20
35.125
 30
0.0
 11
66.5625
 21
35.125
 31
0.0
  0
LINE
  5
2CD
330
1F
100
AcDbEntity
  8
CREASE
 62
     3
100
AcDbLine
 10
61.5625
 20
27.125
 30
0.0
 11
61.5625
 21
35.125
 31
0.0
  0
LINE
  5
2CE
330
1F
100
AcDbEntity
  8
CREASE
 62
     3
100
AcDbLine
 10
61.5625
 20
10.625
 30
0.0
 11
61.5625
 21
18.625
 31
0.0
  0
LINE
  5
2CF
330
1F
100
AcDbEntity
  8
THRU-CUT
 62
     5
100
AcDbLine
 10
66.5625
 20
15.625
 30
0.0
 11
66.5625
 21
18.625
 31
0.0
  0
LINE
  5
2D0
330
1F
100
AcDbEntity
  8
THRU-CUT
 62
     5
100
AcDbLine
 10
61.3125
 20
10.375
 30
0.0
 11
61.5625
 21
10.625
 31
0.0
  0
LINE
  5
2D1
330
1F
100
AcDbEntity
  8
THRU-CUT
 62
     5
100
AcDbLine
 10
56.125
 20
4.9375
 30
0.0
 11
56.125
 21
5.0
 31
0.0
  0
LINE
  5
2D2
330
1F
100
AcDbEntity
  8
CREASE
 62
     3
100
AcDbLine
 10
52.9375
 20
10.3125
 30
0.0
 11
56.3125
 21
10.3125
 31
0.0
  0
LINE
  5
2D3
330
1F
100
AcDbEntity
  8
THRU-CUT
 62
     5
100
AcDbLine
 10
14.9375
 20
0.0
 30
0.0
 11
14.9375
 21
5.24875
 31
0.0
  0
LINE
  5
2D4
330
1F
100
AcDbEntity
  8
THRU-CUT
 62
     5
100
AcDbLine
 10
52.9375
 20
10.625
 30
0.0
 11
52.9375
 21
10.3125
 31
0.0
  0
LINE
  5
2D5
330
1F
100
AcDbEntity
  8
THRU-CUT
 62
     5
100
AcDbLine
 10
6.375
 20
23.875
 30
0.0
 11
6.375
 21
21.875
 31
0.0
  0
LINE
  5
2D6
330
1F
100
AcDbEntity
  8
THRU-CUT
 62
     5
100
AcDbLine
 10
6.375
 20
21.875
 30
0.0
 11
6.6875
 21
21.875
 31
0.0
  0
LINE
  5
2D7
330
1F
100
AcDbEntity
  8
CREASE
 62
     3
100
AcDbLine
 10
6.375
 20
23.875
 30
0.0
 11
6.375
 21
30.125
 31
0.0
  0
LINE
  5
2D8
330
1F
100
AcDbEntity
  8
THRU-CUT
 62
     5
100
AcDbLine
 10
66.5625
 20
32.125
 30
0.0
 11
66.75
 21
32.07475952641916
 31
0.0
  0
LINE
  5
2D9
330
1F
100
AcDbEntity
  8
THRU-CUT
 62
     5
100
AcDbLine
 10
66.5625
 20
23.875
 30
0.0
 11
66.75
 21
23.82475952641916
 31
0.0
  0
LINE
  5
2DA
330
1F
100
AcDbEntity
  8
THRU-CUT
 62
     5
100
AcDbLine
 10
66.5625
 20
23.875
 30
0.0
 11
66.5625
 21
26.875
 31
0.0
  0
LINE
  5
2DB
330
1F
100
AcDbEntity
  8
THRU-CUT
 62
     5
100
AcDbLine
 10
56.125
 20
4.9375
 30
0.0
 11
62.625
 21
4.9375
 31
0.0
  0
LINE
  5
2DC
330
1F
100
AcDbEntity
  8
THRU-CUT
 62
     5
100
AcDbLine
 10
56.3125
 20
10.3125
 30
0.0
 11
56.3125
 21
5.25
 31
0.0
  0
LINE
  5
2DD
330
1F
100
AcDbEntity
  8
THRU-CUT
 62
     5
100
AcDbLine
 10
56.3125
 20
5.25
 30
0.0
 11
56.125
 21
5.0
 31
0.0
  0
LINE
  5
2DE
330
1F
100
AcDbEntity
  8
THRU-CUT
 62
     5
100
AcDbLine
 10
66.5625
 20
15.625
 30
0.0
 11
66.75
 21
15.57475952641916
 31
0.0
  0
LINE
  5
2DF
330
1F
100
AcDbEntity
  8
CREASE
 62
     3
100
AcDbLine
 10
56.25
 20
10.375
 30
0.0
 11
56.25
 21
13.625
 31
0.0
  0
LINE
  5
2E0
330
1F
100
AcDbEntity
  8
THRU-CUT
 62
     5
100
AcDbLine
 10
61.31375000000011
 20
35.375
 30
0.0
 11
66.5625
 21
35.375
 31
0.0
  0
LINE
  5
2E1
330
1F
100
AcDbEntity
  8
THRU-CUT
 62
     5
100
AcDbLine
 10
61.5625
 20
35.125
 30
0.0
 11
61.5625
 21
35.375
 31
0.0
  0
LINE
  5
2E2
330
1F
100
AcDbEntity
  8
THRU-CUT
 62
     5
100
AcDbLine
 10
69.56496062992126
 20
17.9375
 30
0.0
 11
69.56496062992126
 21
18.1875
 31
0.0
  0
LINE
  5
2E3
330
1F
100
AcDbEntity
  8
THRU-CUT
 62
     5
100
AcDbLine
 10
55.9375
 20
23.875
 30
0.0
 11
56.25
 21
23.875
 31
0.0
  0
LINE
  5
2E4
330
1F
100
AcDbEntity
  8
THRU-CUT
 62
     5
100
AcDbLine
 10
66.5625
 20
27.125
 30
0.0
 11
66.5625
 21
30.125
 31
0.0
  0
LINE
  5
2E5
330
1F
100
AcDbEntity
  8
THRU-CUT
 62
     5
100
AcDbLine
 10
66.5625
 20
32.125
 30
0.0
 11
66.5625
 21
35.125
 31
0.0
  0
LINE
  5
2E6
330
1F
100
AcDbEntity
  8
THRU-CUT
 62
     5
100
AcDbLine
 10
66.5625
 20
18.875
 30
0.0
 11
61.31375000000011
 21
18.875
 31
0.0
  0
LINE
  5
2E7
330
1F
100
AcDbEntity
  8
THRU-CUT
 62
     5
100
AcDbLine
 10
61.5625
 20
18.625
 30
0.0
 11
66.5625
 21
18.625
 31
0.0
  0
LINE
  5
2E8
330
1F
100
AcDbEntity
  8
CREASE
 62
     3
100
AcDbLine
 10
31.4375
 20
5.0
 30
0.0
 11
39.4375
 21
5.0
 31
0.0
  0
LINE
  5
2E9
330
1F
100
AcDbEntity
  8
THRU-CUT
 62
     5
100
AcDbLine
 10
1.0625
 20
35.125
 30
0.0
 11
1.0625
 21
35.375
 31
0.0
  0
LINE
  5
2EA
330
1F
100
AcDbEntity
  8
THRU-CUT
 62
     5
100
AcDbLine
 10
1.0625
 20
26.875
 30
0.0
 11
1.0625
 21
27.125
 31
0.0
  0
LINE
  5
2EB
330
1F
100
AcDbEntity
  8
THRU-CUT
 62
     5
100
AcDbLine
 10
6.375
 20
30.125
 30
0.0
 11
6.6875
 21
30.125
 31
0.0
  0
LINE
  5
2EC
330
1F
100
AcDbEntity
  8
THRU-CUT
 62
     5
100
AcDbLine
 10
6.375
 20
13.625
 30
0.0
 11
6.6875
 21
13.625
 31
0.0
  0
LINE
  5
2ED
330
1F
100
AcDbEntity
  8
THRU-CUT
 62
     5
100
AcDbLine
 10
6.6875
 20
13.625
 30
0.0
 11
6.6875
 21
15.625
 31
0.0
  0
LINE
  5
2EE
330
1F
100
AcDbEntity
  8
THRU-CUT
 62
     5
100
AcDbLine
 10
26.1875
 20
10.3125
 30
0.0
 11
26.1875
 21
10.625
 31
0.0
  0
LINE
  5
2EF
330
1F
100
AcDbEntity
  8
THRU-CUT
 62
     5
100
AcDbLine
 10
26.1875
 20
10.625
 30
0.0
 11
28.1875
 21
10.625
 31
0.0
  0
LINE
  5
2F0
330
1F
100
AcDbEntity
  8
THRU-CUT
 62
     5
100
AcDbLine
 10
28.1875
 20
10.625
 30
0.0
 11
28.1875
 21
10.3125
 31
0.0
  0
LINE
  5
2F1
330
1F
100
AcDbEntity
  8
THRU-CUT
 62
     5
100
AcDbLine
 10
69.56496062992126
 20
9.6875
 30
0.0
 11
69.56496062992126
 21
9.9375
 31
0.0
  0
LINE
  5
2F2
330
1F
100
AcDbEntity
  8
THRU-CUT
 62
     5
100
AcDbLine
 10
61.25
 20
5.25
 30
0.0
 11
56.3125
 21
5.25
 31
0.0
  0
LINE
  5
2F3
330
1F
100
AcDbEntity
  8
THRU-CUT
 62
     5
100
AcDbLine
 10
56.25
 20
15.625
 30
0.0
 11
56.25
 21
13.625
 31
0.0
  0
LINE
  5
2F4
330
1F
100
AcDbEntity
  8
THRU-CUT
 62
     5
100
AcDbLine
 10
55.9375
 20
15.625
 30
0.0
 11
56.25
 21
15.625
 31
0.0
  0
LINE
  5
2F5
330
1F
100
AcDbEntity
  8
THRU-CUT
 62
     5
100
AcDbLine
 10
55.9375
 20
30.125
 30
0.0
 11
55.9375
 21
32.125
 31
0.0
  0
LINE
  5
2F6
330
1F
100
AcDbEntity
  8
THRU-CUT
 62
     5
100
AcDbLine
 10
56.25
 20
30.125
 30
0.0
 11
55.9375
 21
30.125
 31
0.0
  0
LINE
  5
2F7
330
1F
100
AcDbEntity
  8
THRU-CUT
 62
     5
100
AcDbLine
 10
55.9375
 20
32.125
 30
0.0
 11
56.25
 21
32.125
 31
0.0
  0
LINE
  5
2F8
330
1F
100
AcDbEntity
  8
THRU-CUT
 62
     5
100
AcDbLine
 10
31.1875
 20
5.0
 30
0.0
 11
31.4375
 21
5.0
 31
0.0
  0
LINE
  5
2F9
330
1F
100
AcDbEntity
  8
THRU-CUT
 62
     5
100
AcDbLine
 10
31.4375
 20
0.0
 30
0.0
 11
31.4375
 21
5.24875
 31
0.0
  0
LINE
  5
2FA
330
1F
100
AcDbEntity
  8
THRU-CUT
 62
     5
100
AcDbLine
 10
44.6875
 20
10.625
 30
0.0
 11
44.6875
 21
10.3125
 31
0.0
  0
LINE
  5
2FB
330
1F
100
AcDbEntity
  8
THRU-CUT
 62
     5
100
AcDbLine
 10
44.6875
 20
10.3125
 30
0.0
 11
42.6875
 21
10.3125
 31
0.0
  0
LINE
  5
2FC
330
1F
100
AcDbEntity
  8
CREASE
 62
     3
100
AcDbLine
 10
39.6875
 20
5.0
 30
0.0
 11
47.6875
 21
5.0
 31
0.0
  0
LINE
  5
2FD
330
1F
100
AcDbEntity
  8
CREASE
 62
     3
100
AcDbLine
 10
36.4375
 20
10.3125
 30
0.0
 11
42.6875
 21
10.3125
 31
0.0
  0
LINE
  5
2FE
330
1F
100
AcDbEntity
  8
THRU-CUT
 62
     5
100
AcDbLine
 10
36.4375
 20
10.3125
 30
0.0
 11
34.4375
 21
10.3125
 31
0.0
  0
LINE
  5
2FF
330
1F
100
AcDbEntity
  8
THRU-CUT
 62
     5
100
AcDbLine
 10
66.5625
 20
10.625
 30
0.0
 11
66.5625
 21
13.625
 31
0.0
  0
LINE
  5
300
330
1F
100
AcDbEntity
  8
THRU-CUT
 62
     5
100
AcDbLine
 10
55.9375
 20
13.625
 30
0.0
 11
55.9375
 21
15.625
 31
0.0
  0
LINE
  5
301
330
1F
100
AcDbEntity
  8
THRU-CUT
 62
     5
100
AcDbLine
 10
56.25
 20
13.625
 30
0.0
 11
55.9375
 21
13.625
 31
0.0
  0
LINE
  5
302
330
1F
100
AcDbEntity
  8
THRU-CUT
 62
     5
100
AcDbLine
 10
66.75
 20
13.67524047358083
 30
0.0
 11
66.75
 21
15.57475952641916
 31
0.0
  0
LINE
  5
303
330
1F
100
AcDbEntity
  8
THRU-CUT
 62
     5
100
AcDbLine
 10
17.9375
 20
10.3125
 30
0.0
 11
17.9375
 21
10.625
 31
0.0
  0
LINE
  5
304
330
1F
100
AcDbEntity
  8
THRU-CUT
 62
     5
100
AcDbLine
 10
14.6875
 20
5.0
 30
0.0
 11
14.9375
 21
5.0
 31
0.0
  0
LINE
  5
305
330
1F
100
AcDbEntity
  8
CREASE
 62
     3
100
AcDbLine
 10
112.8149606299213
 20
42.9375
 30
0.0
 11
112.8149606299213
 21
50.9375
 31
0.0
  0
LINE
  5
306
330
1F
100
AcDbEntity
  8
CREASE
 62
     3
100
AcDbLine
 10
92.43996062992126
 20
42.9375
 30
0.0
 11
92.43996062992126
 21
50.9375
 31
0.0
  0
LINE
  5
307
330
1F
100
AcDbEntity
  8
CREASE
 62
     3
100
AcDbLine
 10
72.06496062992126
 20
9.9375
 30
0.0
 11
72.06496062992126
 21
17.9375
 31
0.0
  0
LINE
  5
308
330
1F
100
AcDbEntity
  8
CREASE
 62
     3
100
AcDbLine
 10
92.43996062992126
 20
9.9375
 30
0.0
 11
92.43996062992126
 21
17.9375
 31
0.0
  0
LINE
  5
309
330
1F
100
AcDbEntity
  8
CREASE
 62
     3
100
AcDbLine
 10
92.62746062992126
 20
17.9375
 30
0.0
 11
92.62746062992126
 21
9.9375
 31
0.0
  0
LINE
  5
30A
330
1F
100
AcDbEntity
  8
CREASE
 62
     3
100
AcDbLine
 10
1.0625
 20
27.125
 30
0.0
 11
1.0625
 21
35.125
 31
0.0
  0
LINE
  5
30B
330
1F
100
AcDbEntity
  8
THRU-CUT
 62
     5
100
AcDbLine
 10
6.6875
 20
32.125
 30
0.0
 11
6.375
 21
32.125
 31
0.0
  0
LINE
  5
30C
330
1F
100
AcDbEntity
  8
THRU-CUT
 62
     5
100
AcDbLine
 10
-3.9375
 20
27.125
 30
0.0
 11
1.31125
 21
27.125
 31
0.0
  0
LINE
  5
30D
330
1F
100
AcDbEntity
  8
THRU-CUT
 62
     5
100
AcDbLine
 10
6.375
 20
32.125
 30
0.0
 11
6.375
 21
30.125
 31
0.0
  0
LINE
  5
30E
330
1F
100
AcDbEntity
  8
THRU-CUT
 62
     5
100
AcDbLine
 10
39.6875
 20
0.0
 30
0.0
 11
39.6875
 21
5.24875
 31
0.0
  0
LINE
  5
30F
330
1F
100
AcDbEntity
  8
THRU-CUT
 62
     5
100
AcDbLine
 10
42.6875
 20
10.3125
 30
0.0
 11
42.6875
 21
10.625
 31
0.0
  0
LINE
  5
310
330
1F
100
AcDbEntity
  8
THRU-CUT
 62
     5
100
AcDbLine
 10
42.6875
 20
10.625
 30
0.0
 11
44.6875
 21
10.625
 31
0.0
  0
LINE
  5
311
330
1F
100
AcDbEntity
  8
THRU-CUT
 62
     5
100
AcDbLine
 10
39.4375
 20
5.0
 30
0.0
 11
39.6875
 21
5.0
 31
0.0
  0
LINE
  5
312
330
1F
100
AcDbEntity
  8
THRU-CUT
 62
     5
100
AcDbLine
 10
47.9375
 20
5.0
 30
0.0
 11
47.6875
 21
5.0
 31
0.0
  0
LINE
  5
313
330
1F
100
AcDbEntity
  8
THRU-CUT
 62
     5
100
AcDbLine
 10
11.6875
 20
10.625
 30
0.0
 11
11.6875
 21
10.3125
 31
0.0
  0
LINE
  5
314
330
1F
100
AcDbEntity
  8
CREASE
 62
     3
100
AcDbLine
 10
14.9375
 20
5.0
 30
0.0
 11
22.9375
 21
5.0
 31
0.0
  0
LINE
  5
315
330
1F
100
AcDbEntity
  8
THRU-CUT
 62
     5
100
AcDbLine
 10
1.3125
 20
10.375
 30
0.0
 11
1.0625
 21
10.625
 31
0.0
  0
LINE
  5
316
330
1F
100
AcDbEntity
  8
CREASE
 62
     3
100
AcDbLine
 10
6.375
 20
10.375
 30
0.0
 11
6.375
 21
13.625
 31
0.0
  0
LINE
  5
317
330
1F
100
AcDbEntity
  8
CREASE
 62
     3
100
AcDbLine
 10
6.375
 20
10.375
 30
0.0
 11
1.375
 21
10.375
 31
0.0
  0
LINE
  5
318
330
1F
100
AcDbEntity
  8
THRU-CUT
 62
     5
100
AcDbLine
 10
28.1875
 20
10.3125
 30
0.0
 11
26.1875
 21
10.3125
 31
0.0
  0
LINE
  5
319
330
1F
100
AcDbEntity
  8
THRU-CUT
 62
     5
100
AcDbLine
 10
22.9375
 20
5.0
 30
0.0
 11
23.1875
 21
5.0
 31
0.0
  0
LINE
  5
31A
330
1F
100
AcDbEntity
  8
THRU-CUT
 62
     5
100
AcDbLine
 10
19.9375
 20
10.3125
 30
0.0
 11
17.9375
 21
10.3125
 31
0.0
  0
LINE
  5
31B
330
1F
100
AcDbEntity
  8
THRU-CUT
 62
     5
100
AcDbLine
 10
19.9375
 20
10.625
 30
0.0
 11
19.9375
 21
10.3125
 31
0.0
  0
LINE
  5
31C
330
1F
100
AcDbEntity
  8
CREASE
 62
     3
100
AcDbLine
 10
19.9375
 20
10.3125
 30
0.0
 11
26.1875
 21
10.3125
 31
0.0
  0
LINE
  5
31D
330
1F
100
AcDbEntity
  8
THRU-CUT
 62
     5
100
AcDbLine
 10
1.375
 20
5.25
 30
0.0
 11
6.3125
 21
5.25
 31
0.0
  0
LINE
  5
31E
330
1F
100
AcDbEntity
  8
CREASE
 62
     3
100
AcDbLine
 10
102.6274606299213
 20
42.9375
 30
0.0
 11
102.6274606299213
 21
50.9375
 31
0.0
  0
LINE
  5
31F
330
1F
100
AcDbEntity
  8
CREASE
 62
     3
100
AcDbLine
 10
113.0024606299213
 20
50.9375
 30
0.0
 11
113.0024606299213
 21
42.9375
 31
0.0
  0
LINE
  5
320
330
1F
100
AcDbEntity
  8
PERF|000_999-090
 62
   151
100
AcDbLine
 10
143.9424212598412
 20
1.5
 30
0.0
 11
148.8799212598412
 21
1.5
 31
0.0
  0
LINE
  5
321
330
1F
100
AcDbEntity
  8
THRU-CUT
 62
     5
100
AcDbLine
 10
126.0049212598412
 20
18.1875
 30
0.0
 11
126.0049212598412
 21
17.9375
 31
0.0
  0
LINE
  5
322
330
1F
100
AcDbEntity
  8
THRU-CUT
 62
     5
100
AcDbLine
 10
141.1924212598412
 20
17.9375
 30
0.0
 11
141.1924212598412
 21
18.1875
 31
0.0
  0
LINE
  5
323
330
1F
100
AcDbEntity
  8
THRU-CUT
 62
     5
100
AcDbLine
 10
6.6875
 20
23.875
 30
0.0
 11
6.375
 21
23.875
 31
0.0
  0
LINE
  5
324
330
1F
100
AcDbEntity
  8
THRU-CUT
 62
     5
100
AcDbLine
 10
6.6875
 20
21.875
 30
0.0
 11
6.6875
 21
23.875
 31
0.0
  0
LINE
  5
325
330
1F
100
AcDbEntity
  8
CREASE
 62
     3
100
AcDbLine
 10
6.3125
 20
60.1875
 30
0.0
 11
9.6875
 21
60.1875
 31
0.0
  0
LINE
  5
326
330
1F
100
AcDbEntity
  8
THRU-CUT
 62
     5
100
AcDbLine
 10
0.0
 20
70.5
 30
0.0
 11
9.6875
 21
70.5
 31
0.0
  0
LINE
  5
327
330
1F
100
AcDbEntity
  8
THRU-CUT
 62
     5
100
AcDbLine
 10
-3.9375
 20
18.875
 30
0.0
 11
1.31125
 21
18.875
 31
0.0
  0
LINE
  5
328
330
1F
100
AcDbEntity
  8
CREASE
 62
     3
100
AcDbLine
 10
1.0625
 20
10.625
 30
0.0
 11
1.0625
 21
18.625
 31
0.0
  0
LINE
  5
329
330
1F
100
AcDbEntity
  8
THRU-CUT
 62
     5
100
AcDbLine
 10
1.0625
 20
18.625
 30
0.0
 11
1.0625
 21
18.875
 31
0.0
  0
LINE
  5
32A
330
1F
100
AcDbEntity
  8
THRU-CUT
 62
     5
100
AcDbLine
 10
6.3125
 20
10.3125
 30
0.0
 11
6.3125
 21
5.25
 31
0.0
  0
LINE
  5
32B
330
1F
100
AcDbEntity
  8
THRU-CUT
 62
     5
100
AcDbLine
 10
6.5
 20
4.9375
 30
0.0
 11
6.5
 21
5.0
 31
0.0
  0
LINE
  5
32C
330
1F
100
AcDbEntity
  8
THRU-CUT
 62
     5
100
AcDbLine
 10
1.375
 20
10.375
 30
0.0
 11
1.375
 21
5.25
 31
0.0
  0
LINE
  5
32D
330
1F
100
AcDbEntity
  8
THRU-CUT
 62
     5
100
AcDbLine
 10
6.375
 20
10.375
 30
0.0
 11
6.3125
 21
10.3125
 31
0.0
  0
LINE
  5
32E
330
1F
100
AcDbEntity
  8
THRU-CUT
 62
     5
100
AcDbLine
 10
1.375
 20
10.375
 30
0.0
 11
1.3125
 21
10.375
 31
0.0
  0
LINE
  5
32F
330
1F
100
AcDbEntity
  8
THRU-CUT
 62
     5
100
AcDbLine
 10
9.6875
 20
10.3125
 30
0.0
 11
9.6875
 21
10.625
 31
0.0
  0
LINE
  5
330
330
1F
100
AcDbEntity
  8
CREASE
 62
     3
100
AcDbLine
 10
6.3125
 20
10.3125
 30
0.0
 11
9.6875
 21
10.3125
 31
0.0
  0
LINE
  5
331
330
1F
100
AcDbEntity
  8
THRU-CUT
 62
     5
100
AcDbLine
 10
17.9375
 20
10.625
 30
0.0
 11
19.9375
 21
10.625
 31
0.0
  0
LINE
  5
332
330
1F
100
AcDbEntity
  8
CREASE
 62
     3
100
AcDbLine
 10
11.6875
 20
10.3125
 30
0.0
 11
17.9375
 21
10.3125
 31
0.0
  0
LINE
  5
333
330
1F
100
AcDbEntity
  8
PERF|000_999-090
 62
   151
100
AcDbLine
 10
92.68996062992126
 20
1.5
 30
0.0
 11
97.62746062992126
 21
1.5
 31
0.0
  0
LINE
  5
334
330
1F
100
AcDbEntity
  8
CREASE
 62
     3
100
AcDbLine
 10
56.125
 20
65.5
 30
0.0
 11
47.9375
 21
65.5
 31
0.0
  0
LINE
  5
335
330
1F
100
AcDbEntity
  8
THRU-CUT
 62
     5
100
AcDbLine
 10
50.9375
 20
70.5
 30
0.0
 11
47.9375
 21
70.5
 31
0.0
  0
LINE
  5
336
330
1F
100
AcDbEntity
  8
CREASE
 62
     3
100
AcDbLine
 10
44.6875
 20
60.1875
 30
0.0
 11
50.9375
 21
60.1875
 31
0.0
  0
LINE
  5
337
330
1F
100
AcDbEntity
  8
CREASE
 62
     3
100
AcDbLine
 10
56.125
 20
5.0
 30
0.0
 11
47.9375
 21
5.0
 31
0.0
  0
LINE
  5
338
330
1F
100
AcDbEntity
  8
CREASE
 62
     3
100
AcDbLine
 10
44.6875
 20
10.3125
 30
0.0
 11
50.9375
 21
10.3125
 31
0.0
  0
LINE
  5
339
330
1F
100
AcDbEntity
  8
THRU-CUT
 62
     5
100
AcDbLine
 10
146.3799212598412
 20
18.1875
 30
0.0
 11
146.3799212598412
 21
17.9375
 31
0.0
  0
LINE
  5
33A
330
1F
100
AcDbEntity
  8
THRU-CUT
 62
     5
100
AcDbLine
 10
131.0049212598412
 20
17.9375
 30
0.0
 11
126.0049212598412
 21
17.9375
 31
0.0
  0
LINE
  5
33B
330
1F
100
AcDbEntity
  8
THRU-CUT
 62
     5
100
AcDbLine
 10
131.0049212598412
 20
17.9375
 30
0.0
 11
131.0049212598412
 21
18.1875
 31
0.0
  0
LINE
  5
33C
330
1F
100
AcDbEntity
  8
THRU-CUT
 62
     5
100
AcDbLine
 10
9.6875
 20
10.625
 30
0.0
 11
11.6875
 21
10.625
 31
0.0
  0
LINE
  5
33D
330
1F
100
AcDbEntity
  8
THRU-CUT
 62
     5
100
AcDbLine
 10
11.6875
 20
10.3125
 30
0.0
 11
9.6875
 21
10.3125
 31
0.0
  0
LINE
  5
33E
330
1F
100
AcDbEntity
  8
THRU-CUT
 62
     5
100
AcDbLine
 10
6.6875
 20
15.625
 30
0.0
 11
6.375
 21
15.625
 31
0.0
  0
LINE
  5
33F
330
1F
100
AcDbEntity
  8
THRU-CUT
 62
     5
100
AcDbLine
 10
6.375
 20
15.625
 30
0.0
 11
6.375
 21
13.625
 31
0.0
  0
LINE
  5
340
330
1F
100
AcDbEntity
  8
THRU-CUT
 62
     5
100
AcDbLine
 10
6.3125
 20
5.25
 30
0.0
 11
6.5
 21
5.0
 31
0.0
  0
LINE
  5
341
330
1F
100
AcDbEntity
  8
PERF|000_999-090
 62
   151
100
AcDbLine
 10
143.9424212598412
 20
51.125
 30
0.0
 11
148.8799212598412
 21
51.125
 31
0.0
  0
LINE
  5
342
330
1F
100
AcDbEntity
  8
PERF|000_999-090
 62
   151
100
AcDbLine
 10
92.68996062992126
 20
51.125
 30
0.0
 11
97.62746062992126
 21
51.125
 31
0.0
  0
LINE
  5
343
330
1F
100
AcDbEntity
  8
THRU-CUT
 62
     5
100
AcDbLine
 10
120.8174212598412
 20
17.9375
 30
0.0
 11
120.8174212598412
 21
18.1875
 31
0.0
  0
LINE
  5
344
330
1F
100
AcDbEntity
  8
THRU-CUT
 62
     5
100
AcDbLine
 10
11.6875
 20
60.1875
 30
0.0
 11
9.6875
 21
60.1875
 31
0.0
  0
LINE
  5
345
330
1F
100
AcDbEntity
  8
THRU-CUT
 62
     5
100
AcDbLine
 10
9.6875
 20
59.875
 30
0.0
 11
11.6875
 21
59.875
 31
0.0
  0
LINE
  5
346
330
1F
100
AcDbEntity
  8
THRU-CUT
 62
     5
100
AcDbLine
 10
9.6875
 20
70.5
 30
0.0
 11
9.737740473580832
 21
70.6875
 31
0.0
  0
LINE
  5
347
330
1F
100
AcDbEntity
  8
THRU-CUT
 62
     5
100
AcDbLine
 10
9.6875
 20
60.1875
 30
0.0
 11
9.6875
 21
59.875
 31
0.0
  0
LINE
  5
348
330
1F
100
AcDbEntity
  8
CREASE
 62
     3
100
AcDbLine
 10
61.5625
 20
18.875
 30
0.0
 11
61.5625
 21
26.875
 31
0.0
  0
LINE
  5
349
330
1F
100
AcDbEntity
  8
THRU-CUT
 62
     5
100
AcDbLine
 10
66.5625
 20
18.875
 30
0.0
 11
66.5625
 21
21.875
 31
0.0
  0
LINE
  5
34A
330
1F
100
AcDbEntity
  8
CREASE
 62
     3
100
AcDbLine
 10
56.25
 20
15.625
 30
0.0
 11
56.25
 21
21.875
 31
0.0
  0
LINE
  5
34B
330
1F
100
AcDbEntity
  8
THRU-CUT
 62
     5
100
AcDbLine
 10
159.0674212598412
 20
9.9375
 30
0.0
 11
159.0674212598412
 21
17.9375
 31
0.0
  0
LINE
  5
34C
330
1F
100
AcDbEntity
  8
THRU-CUT
 62
     5
100
AcDbLine
 10
138.6924212598412
 20
9.9375
 30
0.0
 11
138.6924212598412
 21
17.9375
 31
0.0
  0
LINE
  5
34D
330
1F
100
AcDbEntity
  8
THRU-CUT
 62
     5
100
AcDbLine
 10
128.5049212598412
 20
9.9375
 30
0.0
 11
128.5049212598412
 21
17.9375
 31
0.0
  0
LINE
  5
34E
330
1F
100
AcDbEntity
  8
CREASE
 62
     3
100
AcDbLine
 10
92.62746062992126
 20
50.9375
 30
0.0
 11
92.62746062992126
 21
42.9375
 31
0.0
  0
LINE
  5
34F
330
1F
100
AcDbEntity
  8
CREASE
 62
     3
100
AcDbLine
 10
102.8149606299213
 20
50.9375
 30
0.0
 11
102.8149606299213
 21
42.9375
 31
0.0
  0
LINE
  5
350
330
1F
100
AcDbEntity
  8
CREASE
 62
     3
100
AcDbLine
 10
72.25246062992126
 20
50.9375
 30
0.0
 11
72.25246062992126
 21
42.9375
 31
0.0
  0
LINE
  5
351
330
1F
100
AcDbEntity
  8
THRU-CUT
 62
     5
100
AcDbLine
 10
156.5674212598412
 20
17.9375
 30
0.0
 11
161.5674212598412
 21
17.9375
 31
0.0
  0
LINE
  5
352
330
1F
100
AcDbEntity
  8
THRU-CUT
 62
     5
100
AcDbLine
 10
138.6924212598412
 20
34.6875
 30
0.0
 11
138.6924212598412
 21
42.6875
 31
0.0
  0
LINE
  5
353
330
1F
100
AcDbEntity
  8
CREASE
 62
     3
100
AcDbLine
 10
102.6274606299213
 20
26.4375
 30
0.0
 11
102.6274606299213
 21
34.4375
 31
0.0
  0
LINE
  5
354
330
1F
100
AcDbEntity
  8
CREASE
 62
     3
100
AcDbLine
 10
72.06496062992126
 20
26.4375
 30
0.0
 11
72.06496062992126
 21
34.4375
 31
0.0
  0
LINE
  5
355
330
1F
100
AcDbEntity
  8
THRU-CUT
 62
     5
100
AcDbLine
 10
141.1924212598412
 20
17.9375
 30
0.0
 11
136.1924212598412
 21
17.9375
 31
0.0
  0
LINE
  5
356
330
1F
100
AcDbEntity
  8
THRU-CUT
 62
     5
100
AcDbLine
 10
136.1924212598412
 20
18.1875
 30
0.0
 11
136.1924212598412
 21
17.9375
 31
0.0
  0
LINE
  5
357
330
1F
100
AcDbEntity
  8
THRU-CUT
 62
     5
100
AcDbLine
 10
169.2549212598412
 20
9.9375
 30
0.0
 11
169.2549212598412
 21
17.9375
 31
0.0
  0
LINE
  5
358
330
1F
100
AcDbEntity
  8
THRU-CUT
 62
     5
100
AcDbLine
 10
148.8799212598412
 20
9.9375
 30
0.0
 11
148.8799212598412
 21
17.9375
 31
0.0
  0
LINE
  5
359
330
1F
100
AcDbEntity
  8
CREASE
 62
     3
100
AcDbLine
 10
6.5
 20
5.0
 30
0.0
 11
14.6875
 21
5.0
 31
0.0
  0
LINE
  5
35A
330
1F
100
AcDbEntity
  8
CREASE
 62
     3
100
AcDbLine
 10
72.06496062992126
 20
42.9375
 30
0.0
 11
72.06496062992126
 21
50.9375
 31
0.0
  0
LINE
  5
35B
330
1F
100
AcDbEntity
  8
THRU-CUT
 62
     5
100
AcDbLine
 10
161.5674212598412
 20
17.9375
 30
0.0
 11
161.5674212598412
 21
18.1875
 31
0.0
  0
LINE
  5
35C
330
1F
100
AcDbEntity
  8
CREASE
 62
     3
100
AcDbLine
 10
102.8149606299213
 20
17.9375
 30
0.0
 11
102.8149606299213
 21
9.9375
 31
0.0
  0
LINE
  5
35D
330
1F
100
AcDbEntity
  8
CREASE
 62
     3
100
AcDbLine
 10
113.0024606299213
 20
17.9375
 30
0.0
 11
113.0024606299213
 21
9.9375
 31
0.0
  0
LINE
  5
35E
330
1F
100
AcDbEntity
  8
CREASE
 62
     3
100
AcDbLine
 10
112.8149606299213
 20
9.9375
 30
0.0
 11
112.8149606299213
 21
17.9375
 31
0.0
  0
LINE
  5
35F
330
1F
100
AcDbEntity
  8
THRU-CUT
 62
     5
100
AcDbLine
 10
151.3799212598412
 20
17.9375
 30
0.0
 11
151.3799212598412
 21
18.1875
 31
0.0
  0
LINE
  5
360
330
1F
100
AcDbEntity
  8
THRU-CUT
 62
     5
100
AcDbLine
 10
151.3799212598412
 20
17.9375
 30
0.0
 11
146.3799212598412
 21
17.9375
 31
0.0
  0
LINE
  5
361
330
1F
100
AcDbEntity
  8
THRU-CUT
 62
     5
100
AcDbLine
 10
66.5625
 20
54.875
 30
0.0
 11
66.5625
 21
51.875
 31
0.0
  0
LINE
  5
362
330
1F
100
AcDbEntity
  8
CREASE
 62
     3
100
AcDbLine
 10
28.1875
 20
60.1875
 30
0.0
 11
34.4375
 21
60.1875
 31
0.0
  0
LINE
  5
363
330
1F
100
AcDbEntity
  8
CREASE
 62
     3
100
AcDbLine
 10
6.3125
 20
65.25
 30
0.0
 11
56.3125
 21
65.25
 31
0.0
  0
LINE
  5
364
330
1F
100
AcDbEntity
  8
CREASE
 62
     3
100
AcDbLine
 10
23.1875
 20
65.5
 30
0.0
 11
31.1875
 21
65.5
 31
0.0
  0
LINE
  5
365
330
1F
100
AcDbEntity
  8
THRU-CUT
 62
     5
100
AcDbLine
 10
28.1875
 20
70.5
 30
0.0
 11
31.1875
 21
70.5
 31
0.0
  0
LINE
  5
366
330
1F
100
AcDbEntity
  8
CREASE
 62
     3
100
AcDbLine
 10
102.6274606299213
 20
9.9375
 30
0.0
 11
102.6274606299213
 21
17.9375
 31
0.0
  0
LINE
  5
367
330
1F
100
AcDbEntity
  8
THRU-CUT
 62
     5
100
AcDbLine
 10
9.737740473580832
 20
70.6875
 30
0.0
 11
11.63725952641916
 21
70.6875
 31
0.0
  0
LINE
  5
368
330
1F
100
AcDbEntity
  8
CREASE
 62
     3
100
AcDbLine
 10
6.5
 20
65.5
 30
0.0
 11
14.6875
 21
65.5
 31
0.0
  0
LINE
  5
369
330
1F
100
AcDbEntity
  8
THRU-CUT
 62
     5
100
AcDbLine
 10
69.56496062992126
 20
34.4375
 30
0.0
 11
74.75246062992126
 21
34.4375
 31
0.0
  0
LINE
  5
36A
330
1F
100
AcDbEntity
  8
THRU-CUT
 62
     5
100
AcDbLine
 10
74.75246062992126
 20
34.6875
 30
0.0
 11
69.56496062992126
 21
34.6875
 31
0.0
  0
LINE
  5
36B
330
1F
100
AcDbEntity
  8
THRU-CUT
 62
     5
100
AcDbLine
 10
74.75246062992126
 20
18.1875
 30
0.0
 11
69.56496062992126
 21
18.1875
 31
0.0
  0
LINE
  5
36C
330
1F
100
AcDbEntity
  8
THRU-CUT
 62
     5
100
AcDbLine
 10
74.75246062992126
 20
9.9375
 30
0.0
 11
69.56496062992126
 21
9.9375
 31
0.0
  0
LINE
  5
36D
330
1F
100
AcDbEntity
  8
THRU-CUT
 62
     5
100
AcDbLine
 10
69.56496062992126
 20
9.6875
 30
0.0
 11
74.75246062992126
 21
9.6875
 31
0.0
  0
LINE
  5
36E
330
1F
100
AcDbEntity
  8
CREASE
 62
     3
100
AcDbLine
 10
1.0625
 20
59.875
 30
0.0
 11
1.0625
 21
51.875
 31
0.0
  0
LINE
  5
36F
330
1F
100
AcDbEntity
  8
CREASE
 62
     3
100
AcDbLine
 10
6.375
 20
48.625
 30
0.0
 11
6.375
 21
54.875
 31
0.0
  0
LINE
  5
370
330
1F
100
AcDbEntity
  8
PERF|000_999-090
 62
   151
100
AcDbLine
 10
123.2549212598412
 20
51.125
 30
0.0
 11
118.3174212598412
 21
51.125
 31
0.0
  0
LINE
  5
371
330
1F
100
AcDbEntity
  8
THRU-CUT
 62
     5
100
AcDbLine
 10
118.3174212598412
 20
52.625
 30
0.0
 11
123.2549212598412
 21
52.625
 31
0.0
  0
LINE
  5
372
330
1F
100
AcDbEntity
  8
THRU-CUT
 62
     5
100
AcDbLine
 10
120.8174212598412
 20
42.6875
 30
0.0
 11
118.3174212598412
 21
42.6875
 31
0.0
  0
LINE
  5
373
330
1F
100
AcDbEntity
  8
THRU-CUT
 62
     5
100
AcDbLine
 10
120.8174212598412
 20
42.9375
 30
0.0
 11
118.3174212598412
 21
42.9375
 31
0.0
  0
LINE
  5
374
330
1F
100
AcDbEntity
  8
CREASE
 62
     3
100
AcDbLine
 10
72.25246062992126
 20
34.4375
 30
0.0
 11
72.25246062992126
 21
26.4375
 31
0.0
  0
LINE
  5
375
330
1F
100
AcDbEntity
  8
CREASE
 62
     3
100
AcDbLine
 10
1.0625
 20
18.875
 30
0.0
 11
1.0625
 21
26.875
 31
0.0
  0
LINE
  5
376
330
1F
100
AcDbEntity
  8
CREASE
 62
     3
100
AcDbLine
 10
6.375
 20
15.625
 30
0.0
 11
6.375
 21
21.875
 31
0.0
  0
LINE
  5
377
330
1F
100
AcDbEntity
  8
THRU-CUT
 62
     5
100
AcDbLine
 10
166.7549212598412
 20
17.9375
 30
0.0
 11
169.2549212598412
 21
17.9375
 31
0.0
  0
LINE
  5
378
330
1F
100
AcDbEntity
  8
THRU-CUT
 62
     5
100
AcDbLine
 10
166.7549212598412
 20
18.1875
 30
0.0
 11
166.7549212598412
 21
17.9375
 31
0.0
  0
LINE
  5
379
330
1F
100
AcDbEntity
  8
THRU-CUT
 62
     5
100
AcDbLine
 10
156.5674212598412
 20
18.1875
 30
0.0
 11
156.5674212598412
 21
17.9375
 31
0.0
  0
LINE
  5
37A
330
1F
100
AcDbEntity
  8
PERF|000_999-090
 62
   151
100
AcDbLine
 10
123.2549212598412
 20
1.5
 30
0.0
 11
118.3174212598412
 21
1.5
 31
0.0
  0
LINE
  5
37B
330
1F
100
AcDbEntity
  8
CREASE
 62
     3
100
AcDbLine
 10
6.3125
 20
5.25
 30
0.0
 11
56.3125
 21
5.25
 31
0.0
  0
LINE
  5
37C
330
1F
100
AcDbEntity
  8
CREASE
 62
     3
100
AcDbLine
 10
23.1875
 20
5.0
 30
0.0
 11
31.1875
 21
5.0
 31
0.0
  0
LINE
  5
37D
330
1F
100
AcDbEntity
  8
CREASE
 62
     3
100
AcDbLine
 10
82.43996062992126
 20
17.9375
 30
0.0
 11
82.43996062992126
 21
9.9375
 31
0.0
  0
LINE
  5
37E
330
1F
100
AcDbEntity
  8
CREASE
 62
     3
100
AcDbLine
 10
82.25246062992126
 20
9.9375
 30
0.0
 11
82.25246062992126
 21
17.9375
 31
0.0
  0
LINE
  5
37F
330
1F
100
AcDbEntity
  8
THRU-CUT
 62
     5
100
AcDbLine
 10
118.3174212598412
 20
17.9375
 30
0.0
 11
118.3174212598412
 21
9.9375
 31
0.0
  0
LINE
  5
380
330
1F
100
AcDbEntity
  8
CREASE
 62
     3
100
AcDbLine
 10
82.43996062992126
 20
50.9375
 30
0.0
 11
82.43996062992126
 21
42.9375
 31
0.0
  0
LINE
  5
381
330
1F
100
AcDbEntity
  8
CREASE
 62
     3
100
AcDbLine
 10
82.25246062992126
 20
42.9375
 30
0.0
 11
82.25246062992126
 21
50.9375
 31
0.0
  0
LINE
  5
382
330
1F
100
AcDbEntity
  8
CREASE
 62
     3
100
AcDbLine
 10
61.5625
 20
35.375
 30
0.0
 11
61.5625
 21
43.375
 31
0.0
  0
LINE
  5
383
330
1F
100
AcDbEntity
  8
THRU-CUT
 62
     5
100
AcDbLine
 10
69.56496062992126
 20
42.6875
 30
0.0
 11
74.75246062992126
 21
42.6875
 31
0.0
  0
LINE
  5
384
330
1F
100
AcDbEntity
  8
THRU-CUT
 62
     5
100
AcDbLine
 10
74.75246062992126
 20
42.9375
 30
0.0
 11
69.56496062992126
 21
42.9375
 31
0.0
  0
LINE
  5
385
330
1F
100
AcDbEntity
  8
THRU-CUT
 62
     5
100
AcDbLine
 10
66.5625
 20
35.375
 30
0.0
 11
66.5625
 21
38.375
 31
0.0
  0
LINE
  5
386
330
1F
100
AcDbEntity
  8
CREASE
 62
     3
100
AcDbLine
 10
56.25
 20
32.125
 30
0.0
 11
56.25
 21
38.375
 31
0.0
  0
LINE
  5
387
330
1F
100
AcDbEntity
  8
CREASE
 62
     3
100
AcDbLine
 10
164.2549212598412
 20
50.9375
 30
0.0
 11
164.2549212598412
 21
1.6875
 31
0.0
  0
LINE
  5
388
330
1F
100
AcDbEntity
  8
CREASE
 62
     3
100
AcDbLine
 10
133.6924212598412
 20
50.9375
 30
0.0
 11
133.6924212598412
 21
1.6875
 31
0.0
  0
LINE
  5
389
330
1F
100
AcDbEntity
  8
CREASE
 62
     3
100
AcDbLine
 10
133.5049212598412
 20
1.6875
 30
0.0
 11
133.5049212598412
 21
50.9375
 31
0.0
  0
LINE
  5
38A
330
1F
100
AcDbEntity
  8
CREASE
 62
     3
100
AcDbLine
 10
123.3174212598412
 20
1.6875
 30
0.0
 11
123.3174212598412
 21
50.9375
 31
0.0
  0
LINE
  5
38B
330
1F
100
AcDbEntity
  8
CREASE
 62
     3
100
AcDbLine
 10
123.5049212598412
 20
50.9375
 30
0.0
 11
123.5049212598412
 21
1.6875
 31
0.0
  0
LINE
  5
38C
330
1F
100
AcDbEntity
  8
THRU-CUT
 62
     5
100
AcDbLine
 10
77.25246062992126
 20
0.0
 30
0.0
 11
77.25246062992126
 21
52.62499999999999
 31
0.0
  0
LINE
  5
38D
330
1F
100
AcDbEntity
  8
THRU-CUT
 62
     5
100
AcDbLine
 10
120.8174212598412
 20
34.6875
 30
0.0
 11
118.3174212598412
 21
34.6875
 31
0.0
  0
LINE
  5
38E
330
1F
100
AcDbEntity
  8
THRU-CUT
 62
     5
100
AcDbLine
 10
120.8174212598412
 20
34.4375
 30
0.0
 11
118.3174212598412
 21
34.4375
 31
0.0
  0
LINE
  5
38F
330
1F
100
AcDbEntity
  8
THRU-CUT
 62
     5
100
AcDbLine
 10
120.8174212598412
 20
9.9375
 30
0.0
 11
118.3174212598412
 21
9.9375
 31
0.0
  0
LINE
  5
390
330
1F
100
AcDbEntity
  8
THRU-CUT
 62
     5
100
AcDbLine
 10
120.8174212598412
 20
9.6875
 30
0.0
 11
118.3174212598412
 21
9.6875
 31
0.0
  0
LINE
  5
391
330
1F
100
AcDbEntity
  8
THRU-CUT
 62
     5
100
AcDbLine
 10
120.8174212598412
 20
17.9375
 30
0.0
 11
118.3174212598412
 21
17.9375
 31
0.0
  0
LINE
  5
392
330
1F
100
AcDbEntity
  8
THRU-CUT
 62
     5
100
AcDbLine
 10
120.8174212598412
 20
18.1875
 30
0.0
 11
118.3174212598412
 21
18.1875
 31
0.0
  0
LINE
  5
393
330
1F
100
AcDbEntity
  8
THRU-CUT
 62
     5
100
AcDbLine
 10
120.8174212598412
 20
26.1875
 30
0.0
 11
118.3174212598412
 21
26.1875
 31
0.0
  0
LINE
  5
394
330
1F
100
AcDbEntity
  8
THRU-CUT
 62
     5
100
AcDbLine
 10
120.8174212598412
 20
26.4375
 30
0.0
 11
118.3174212598412
 21
26.4375
 31
0.0
  0
LINE
  5
395
330
1F
100
AcDbEntity
  8
THRU-CUT
 62
     5
100
AcDbLine
 10
169.2549212598412
 20
34.6875
 30
0.0
 11
169.2549212598412
 21
42.6875
 31
0.0
  0
LINE
  5
396
330
1F
100
AcDbEntity
  8
THRU-CUT
 62
     5
100
AcDbLine
 10
148.8799212598412
 20
34.6875
 30
0.0
 11
148.8799212598412
 21
42.6875
 31
0.0
  0
LINE
  5
397
330
1F
100
AcDbEntity
  8
CREASE
 62
     3
100
AcDbLine
 10
72.25246062992126
 20
17.9375
 30
0.0
 11
72.25246062992126
 21
9.9375
 31
0.0
  0
LINE
  5
398
330
1F
100
AcDbEntity
  8
CREASE
 62
     3
100
AcDbLine
 10
56.25
 20
48.625
 30
0.0
 11
56.25
 21
54.875
 31
0.0
  0
LINE
  5
399
330
1F
100
AcDbEntity
  8
CREASE
 62
     3
100
AcDbLine
 10
61.5625
 20
59.875
 30
0.0
 11
61.5625
 21
51.875
 31
0.0
  0
LINE
  5
39A
330
1F
100
AcDbEntity
  8
CREASE
 62
     3
100
AcDbLine
 10
28.1875
 20
10.3125
 30
0.0
 11
34.4375
 21
10.3125
 31
0.0
  0
LINE
  5
39B
330
1F
100
AcDbEntity
  8
CREASE
 62
     3
100
AcDbLine
 10
1.0625
 20
35.375
 30
0.0
 11
1.0625
 21
43.375
 31
0.0
  0
LINE
  5
39C
330
1F
100
AcDbEntity
  8
CREASE
 62
     3
100
AcDbLine
 10
61.3125
 20
10.375
 30
0.0
 11
61.3125
 21
60.125
 31
0.0
  0
LINE
  5
39D
330
1F
100
AcDbEntity
  8
THRU-CUT
 62
     5
100
AcDbLine
 10
67.06496062992126
 20
52.625
 30
0.0
 11
72.00246062992126
 21
52.625
 31
0.0
  0
LINE
  5
39E
330
1F
100
AcDbEntity
  8
THRU-CUT
 62
     5
100
AcDbLine
 10
69.56496062992126
 20
26.1875
 30
0.0
 11
74.75246062992126
 21
26.1875
 31
0.0
  0
LINE
  5
39F
330
1F
100
AcDbEntity
  8
THRU-CUT
 62
     5
100
AcDbLine
 10
74.75246062992126
 20
26.4375
 30
0.0
 11
69.56496062992126
 21
26.4375
 31
0.0
  0
LINE
  5
3A0
330
1F
100
AcDbEntity
  8
CREASE
 62
     3
100
AcDbLine
 10
92.62746062992126
 20
34.4375
 30
0.0
 11
92.62746062992126
 21
26.4375
 31
0.0
  0
LINE
  5
3A1
330
1F
100
AcDbEntity
  8
CREASE
 62
     3
100
AcDbLine
 10
102.8149606299213
 20
34.4375
 30
0.0
 11
102.8149606299213
 21
26.4375
 31
0.0
  0
LINE
  5
3A2
330
1F
100
AcDbEntity
  8
CREASE
 62
     3
100
AcDbLine
 10
82.43996062992126
 20
34.4375
 30
0.0
 11
82.43996062992126
 21
26.4375
 31
0.0
  0
LINE
  5
3A3
330
1F
100
AcDbEntity
  8
CREASE
 62
     3
100
AcDbLine
 10
82.25246062992126
 20
26.4375
 30
0.0
 11
82.25246062992126
 21
34.4375
 31
0.0
  0
LINE
  5
3A4
330
1F
100
AcDbEntity
  8
CREASE
 62
     3
100
AcDbLine
 10
143.6924212598412
 20
1.6875
 30
0.0
 11
143.6924212598412
 21
50.9375
 31
0.0
  0
LINE
  5
3A5
330
1F
100
AcDbEntity
  8
CREASE
 62
     3
100
AcDbLine
 10
143.8799212598412
 20
50.9375
 30
0.0
 11
143.8799212598412
 21
1.6875
 31
0.0
  0
LINE
  5
3A6
330
1F
100
AcDbEntity
  8
CREASE
 62
     3
100
AcDbLine
 10
154.0674212598412
 20
50.9375
 30
0.0
 11
154.0674212598412
 21
1.6875
 31
0.0
  0
LINE
  5
3A7
330
1F
100
AcDbEntity
  8
CREASE
 62
     3
100
AcDbLine
 10
153.8799212598412
 20
1.6875
 30
0.0
 11
153.8799212598412
 21
50.9375
 31
0.0
  0
LINE
  5
3A8
330
1F
100
AcDbEntity
  8
CREASE
 62
     3
100
AcDbLine
 10
164.0674212598412
 20
1.6875
 30
0.0
 11
164.0674212598412
 21
50.9375
 31
0.0
  0
LINE
  5
3A9
330
1F
100
AcDbEntity
  8
CREASE
 62
     3
100
AcDbLine
 10
92.43996062992126
 20
26.4375
 30
0.0
 11
92.43996062992126
 21
34.4375
 31
0.0
  0
LINE
  5
3AA
330
1F
100
AcDbEntity
  8
PERF|000_999-090
 62
   151
100
AcDbLine
 10
72.00246062992126
 20
51.125
 30
0.0
 11
67.06496062992126
 21
51.125
 31
0.0
  0
LINE
  5
3AB
330
1F
100
AcDbEntity
  8
THRU-CUT
 62
     5
100
AcDbLine
 10
69.56496062992126
 20
17.9375
 30
0.0
 11
74.75246062992126
 21
17.9375
 31
0.0
  0
LINE
  5
3AC
330
1F
100
AcDbEntity
  8
CREASE
 62
     3
100
AcDbLine
 10
1.3125
 20
10.375
 30
0.0
 11
1.3125
 21
60.125
 31
0.0
  0
LINE
  5
3AD
330
1F
100
AcDbEntity
  8
CREASE
 62
     3
100
AcDbLine
 10
6.375
 20
32.125
 30
0.0
 11
6.375
 21
38.375
 31
0.0
  0
LINE
  5
3AE
330
1F
100
AcDbEntity
  8
CREASE
 62
     3
100
AcDbLine
 10
113.0024606299213
 20
34.4375
 30
0.0
 11
113.0024606299213
 21
26.4375
 31
0.0
  0
LINE
  5
3AF
330
1F
100
AcDbEntity
  8
CREASE
 62
     3
100
AcDbLine
 10
112.8149606299213
 20
26.4375
 30
0.0
 11
112.8149606299213
 21
34.4375
 31
0.0
  0
LINE
  5
3B0
330
1F
100
AcDbEntity
  8
THRU-CUT
 62
     5
100
AcDbLine
 10
159.0674212598412
 20
34.6875
 30
0.0
 11
159.0674212598412
 21
42.6875
 31
0.0
  0
LINE
  5
3B1
330
1F
100
AcDbEntity
  8
THRU-CUT
 62
     5
100
AcDbLine
 10
118.3174212598412
 20
42.6875
 30
0.0
 11
118.3174212598412
 21
34.6875
 31
0.0
  0
LINE
  5
3B2
330
1F
100
AcDbEntity
  8
THRU-CUT
 62
     5
100
AcDbLine
 10
128.5049212598412
 20
34.6875
 30
0.0
 11
128.5049212598412
 21
42.6875
 31
0.0
  0
LINE
  5
3B3
330
1F
100
AcDbEntity
  8
PERF|000_999-090
 62
   151
100
AcDbLine
 10
72.00246062992126
 20
1.5
 30
0.0
 11
67.06496062992126
 21
1.5
 31
0.0
  0
ENDSEC
  0
SECTION
  2
OBJECTS
  0
DICTIONARY
  5
C
330
0
100
AcDbDictionary
  3
ACAD_GROUP
350
D
  3
ACAD_LAYOUT
350
1A
  3
ACAD_MLEADERSTYLE
350
3D5
  3
ACAD_MLINESTYLE
350
17
  3
ACAD_PLOTSETTINGS
350
19
  3
ACAD_TABLESTYLE
350
3D4
  3
ACAD_VISUALSTYLE
350
2A
  3
ACDBHEADERROUNDTRIPXREC
350
3B4
  0
DICTIONARY
  5
D
102
{ACAD_REACTORS
330
C
102
}
330
C
100
AcDbDictionary
  0
DICTIONARY
  5
1A
102
{ACAD_REACTORS
330
C
102
}
330
C
100
AcDbDictionary
  0
DICTIONARY
  5
3D5
102
{ACAD_REACTORS
330
C
102
}
330
C
100
AcDbDictionary
  0
DICTIONARY
  5
17
102
{ACAD_REACTORS
330
C
102
}
330
C
100
AcDbDictionary
  3
STANDARD
350
18
  0
DICTIONARY
  5
19
102
{ACAD_REACTORS
330
C
102
}
330
C
100
AcDbDictionary
  0
DICTIONARY
  5
3D4
102
{ACAD_REACTORS
330
C
102
}
330
C
100
AcDbDictionary
  0
DICTIONARY
  5
2A
102
{ACAD_REACTORS
330
C
102
}
330
C
100
AcDbDictionary
  3
2DWIREFRAME
350
2F
  3
3D_HIDDEN
350
31
  3
3DWIREFRAME
350
30
  3
BASIC
350
32
  3
BRIGHTEN
350
36
  3
COLORCHANGE
350
3A
  3
CONCEPTUAL
350
34
  3
DIM
350
35
  3
FACEPATTERN
350
39
  3
FLAT
350
2B
  3
FLATWITHEDGES
350
2C
  3
GOURAUD
350
2D
  3
GOURAUDWITHEDGES
350
2E
  3
LINEPATTERN
350
38
  3
REALISTIC
350
33
  3
THICKEN
350
37
  0
DICTIONARY
  5
3B4
102
{ACAD_REACTORS
330
C
102
}
330
C
100
AcDbDictionary
  3
CEPSNTYPE
350
3BD
  3
DIMSTYLEDATA
350
3D3
  3
FINGERPRINTGUID
350
3BE
  3
HYPERLINKBASE
350
3B7
  3
INSUNITS
350
3BC
  3
LAYOUTDICT
350
3B9
  3
LWETCUNION
350
3BB
  3
PLOTSETDICT
350
3BA
  3
PSVPSCALE
350
3C0
  3
PUCSBASE
350
3C3
  3
PUCSORGBACK
350
3C9
  3
PUCSORGBOTTOM
350
3C5
  3
PUCSORGFRONT
350
3C8
  3
PUCSORGLEFT
350
3C6
  3
PUCSORGRIGHT
350
3C7
  3
PUCSORGTOP
350
3C4
  3
PUCSORTHOREF
350
3C1
  3
PUCSORTHOVIEW
350
3C2
  3
STYLESHEET
350
3B8
  3
TSTACKALIGN
350
3B5
  3
TSTACKSIZE
350
3B6
  3
UCSBASE
350
3CC
  3
UCSORGBACK
350
3D2
  3
UCSORGBOTTOM
350
3CE
  3
UCSORGFRONT
350
3D1
  3
UCSORGLEFT
350
3CF
  3
UCSORGRIGHT
350
3D0
  3
UCSORGTOP
350
3CD
  3
UCSORTHOREF
350
3CA
  3
UCSORTHOVIEW
350
3CB
  3
VERSIONGUID
350
3BF
  0
MLINESTYLE
  5
18
102
{ACAD_REACTORS
330
17
102
}
330
17
100
AcDbMlineStyle
  2
Standard
 70
     0
  3

 62
   256
 51
90.0
 52
90.0
 71
     2
 49
0.5
 62
   256
  6
BYLAYER
 49
-0.5
 62
   256
  6
BYLAYER
  0
VISUALSTYLE
  5
2F
102
{ACAD_REACTORS
330
2A
102
}
330
2A
100
AcDbVisualStyle
  2
2dWireframe
 70
     4
 71
     0
 72
     2
 73
     0
 90
        0
 40
-0.6
 41
-30.0
 62
     5
 63
     7
 74
     1
 91
        4
 64
     7
 65
   257
 75
     1
175
     1
 42
1.0
 92
        0
 66
   257
 43
1.0
 76
     1
 77
     6
 78
     2
 67
     7
 79
     5
170
     0
171
     0
290
     0
174
     0
 93
        1
 44
0.0
173
     0
291
     0
 45
0.0
1001
ACAD
1000
AcDbSavedByObjectVersion
1070
     0
  0
VISUALSTYLE
  5
31
102
{ACAD_REACTORS
330
2A
102
}
330
2A
100
AcDbVisualStyle
  2
3D Hidden
 70
     6
 71
     1
 72
     2
 73
     2
 90
        0
 40
-0.6
 41
-30.0
 62
     5
 63
     7
 74
     2
 91
        2
 64
     7
 65
   257
 75
     2
175
     1
 42
40.0
 92
        0
 66
   257
 43
1.0
 76
     1
 77
     6
 78
     2
 67
     7
 79
     3
170
     0
171
     0
290
     0
174
     0
 93
        1
 44
0.0
173
     0
291
     0
 45
0.0
1001
ACAD
1000
AcDbSavedByObjectVersion
1070
     0
  0
VISUALSTYLE
  5
30
102
{ACAD_REACTORS
330
2A
102
}
330
2A
100
AcDbVisualStyle
  2
3dWireframe
 70
     5
 71
     0
 72
     2
 73
     0
 90
        0
 40
-0.6
 41
-30.0
 62
     5
 63
     7
 74
     1
 91
        4
 64
     7
 65
   257
 75
     1
175
     1
 42
1.0
 92
        0
 66
   257
 43
1.0
 76
     1
 77
     6
 78
     2
 67
     7
 79
     5
170
     0
171
     0
290
     0
174
     0
 93
        1
 44
0.0
173
     0
291
     0
 45
0.0
1001
ACAD
1000
AcDbSavedByObjectVersion
1070
     0
  0
VISUALSTYLE
  5
32
102
{ACAD_REACTORS
330
2A
102
}
330
2A
100
AcDbVisualStyle
  2
Basic
 70
     7
 71
     1
 72
     0
 73
     1
 90
        0
 40
-0.6
 41
-30.0
 62
     5
 63
     7
 74
     0
 91
        4
 64
     7
 65
   257
 75
     1
175
     1
 42
1.0
 92
        8
 66
     7
 43
1.0
 76
     1
 77
     6
 78
     2
 67
     7
 79
     5
170
     0
171
     0
290
     0
174
     0
 93
        1
 44
0.0
173
     0
291
     1
 45
0.0
1001
ACAD
1000
AcDbSavedByObjectVersion
1070
     0
  0
VISUALSTYLE
  5
36
102
{ACAD_REACTORS
330
2A
102
}
330
2A
100
AcDbVisualStyle
  2
Brighten
 70
    12
 71
     2
 72
     2
 73
     0
 90
        0
 40
-0.6
 41
-30.0
 62
     5
 63
     7
 74
     1
 91
        4
 64
     7
 65
   257
 75
     1
175
     1
 42
1.0
 92
        8
 66
     7
 43
1.0
 76
     1
 77
     6
 78
     2
 67
     7
 79
     5
170
     0
171
     0
290
     0
174
     0
 93
        1
 44
50.0
173
     0
291
     1
 45
0.0
1001
ACAD
1000
AcDbSavedByObjectVersion
1070
     0
  0
VISUALSTYLE
  5
3A
102
{ACAD_REACTORS
330
2A
102
}
330
2A
100
AcDbVisualStyle
  2
ColorChange
 70
    16
 71
     2
 72
     2
 73
     3
 90
        0
 40
-0.6
 41
-30.0
 62
     5
 63
     8
 74
     1
 91
        4
 64
     7
 65
   257
 75
     1
175
     1
 42
1.0
 92
        8
 66
     8
 43
1.0
 76
     1
 77
     6
 78
     2
 67
     7
 79
     5
170
     0
171
     0
290
     0
174
     0
 93
        1
 44
0.0
173
     0
291
     1
 45
0.0
1001
ACAD
1000
AcDbSavedByObjectVersion
1070
     0
  0
VISUALSTYLE
  5
34
102
{ACAD_REACTORS
330
2A
102
}
330
2A
100
AcDbVisualStyle
  2
Conceptual
 70
     9
 71
     3
 72
     2
 73
     0
 90
        0
 40
-0.6
 41
-30.0
 62
     5
 63
     7
 74
     2
 91
        2
 64
     7
 65
   257
 75
     1
175
     1
 42
40.0
 92
        8
 66
     7
 43
1.0
 76
     1
 77
     6
 78
     2
 67
     7
 79
     3
170
     0
171
     0
290
     0
174
     0
 93
        1
 44
0.0
173
     0
291
     0
 45
0.0
1001
ACAD
1000
AcDbSavedByObjectVersion
1070
     0
  0
VISUALSTYLE
  5
35
102
{ACAD_REACTORS
330
2A
102
}
330
2A
100
AcDbVisualStyle
  2
Dim
 70
    11
 71
     2
 72
     2
 73
     0
 90
        0
 40
-0.6
 41
-30.0
 62
     5
 63
     7
 74
     1
 91
        4
 64
     7
 65
   257
 75
     1
175
     1
 42
1.0
 92
        8
 66
     7
 43
1.0
 76
     1
 77
     6
 78
     2
 67
     7
 79
     5
170
     0
171
     0
290
     0
174
     0
 93
        1
 44
-50.0
173
     0
291
     1
 45
0.0
1001
ACAD
1000
AcDbSavedByObjectVersion
1070
     0
  0
VISUALSTYLE
  5
39
102
{ACAD_REACTORS
330
2A
102
}
330
2A
100
AcDbVisualStyle
  2
Facepattern
 70
    15
 71
     2
 72
     2
 73
     0
 90
        0
 40
-0.6
 41
-30.0
 62
     5
 63
     7
 74
     1
 91
        4
 64
     7
 65
   257
 75
     1
175
     1
 42
1.0
 92
        8
 66
     7
 43
1.0
 76
     1
 77
     6
 78
     2
 67
     7
 79
     5
170
     0
171
     0
290
     0
174
     0
 93
        1
 44
0.0
173
     0
291
     1
 45
0.0
1001
ACAD
1000
AcDbSavedByObjectVersion
1070
     0
  0
VISUALSTYLE
  5
2B
102
{ACAD_REACTORS
330
2A
102
}
330
2A
100
AcDbVisualStyle
  2
Flat
 70
     0
 71
     2
 72
     1
 73
     1
 90
        2
 40
-0.6
 41
30.0
 62
     5
 63
     7
 74
     0
 91
        4
 64
     7
 65
   257
 75
     1
175
     1
 42
1.0
 92
        8
 66
     7
 43
1.0
 76
     1
 77
     6
 78
     2
 67
     7
 79
     5
170
     0
171
     0
290
     0
174
     0
 93
       13
 44
0.0
173
     0
291
     1
 45
0.0
1001
ACAD
1000
AcDbSavedByObjectVersion
1070
     0
  0
VISUALSTYLE
  5
2C
102
{ACAD_REACTORS
330
2A
102
}
330
2A
100
AcDbVisualStyle
  2
FlatWithEdges
 70
     1
 71
     2
 72
     1
 73
     1
 90
        2
 40
-0.6
 41
30.0
 62
     5
 63
     7
 74
     1
 91
        4
 64
     7
 65
   257
 75
     1
175
     1
 42
1.0
 92
        0
 66
   257
 43
1.0
 76
     1
 77
     6
 78
     2
 67
     7
 79
     5
170
     0
171
     0
290
     0
174
     0
 93
       13
 44
0.0
173
     0
291
     1
 45
0.0
1001
ACAD
1000
AcDbSavedByObjectVersion
1070
     0
  0
VISUALSTYLE
  5
2D
102
{ACAD_REACTORS
330
2A
102
}
330
2A
100
AcDbVisualStyle
  2
Gouraud
 70
     2
 71
     2
 72
     2
 73
     1
 90
        2
 40
-0.6
 41
30.0
 62
     5
 63
     7
 74
     0
 91
        4
 64
     7
 65
   257
 75
     1
175
     1
 42
1.0
 92
        0
 66
     7
 43
1.0
 76
     1
 77
     6
 78
     2
 67
     7
 79
     5
170
     0
171
     0
290
     0
174
     0
 93
       13
 44
0.0
173
     0
291
     1
 45
0.0
1001
ACAD
1000
AcDbSavedByObjectVersion
1070
     0
  0
VISUALSTYLE
  5
2E
102
{ACAD_REACTORS
330
2A
102
}
330
2A
100
AcDbVisualStyle
  2
GouraudWithEdges
 70
     3
 71
     2
 72
     2
 73
     1
 90
        2
 40
-0.6
 41
30.0
 62
     5
 63
     7
 74
     1
 91
        4
 64
     7
 65
   257
 75
     1
175
     1
 42
1.0
 92
        0
 66
   257
 43
1.0
 76
     1
 77
     6
 78
     2
 67
     7
 79
     5
170
     0
171
     0
290
     0
174
     0
 93
       13
 44
0.0
173
     0
291
     1
 45
0.0
1001
ACAD
1000
AcDbSavedByObjectVersion
1070
     0
  0
VISUALSTYLE
  5
38
102
{ACAD_REACTORS
330
2A
102
}
330
2A
100
AcDbVisualStyle
  2
Linepattern
 70
    14
 71
     2
 72
     2
 73
     0
 90
        0
 40
-0.6
 41
-30.0
 62
     5
 63
     7
 74
     1
 91
        4
 64
     7
 65
   257
 75
     7
175
     7
 42
1.0
 92
        8
 66
     7
 43
1.0
 76
     1
 77
     6
 78
     2
 67
     7
 79
     5
170
     0
171
     0
290
     0
174
     0
 93
        1
 44
0.0
173
     0
291
     1
 45
0.0
1001
ACAD
1000
AcDbSavedByObjectVersion
1070
     0
  0
VISUALSTYLE
  5
33
102
{ACAD_REACTORS
330
2A
102
}
330
2A
100
AcDbVisualStyle
  2
Realistic
 70
     8
 71
     2
 72
     2
 73
     0
 90
        0
 40
-0.6
 41
-30.0
 62
     5
 63
     7
 74
     1
 91
        0
 64
     7
 65
   257
 75
     1
175
     1
 42
1.0
 92
        8
 66
     8
 43
1.0
 76
     1
 77
     6
 78
     2
 67
     7
 79
     5
170
     0
171
     0
290
     0
174
     0
 93
       13
 44
0.0
173
     0
291
     0
 45
0.0
1001
ACAD
1000
AcDbSavedByObjectVersion
1070
     0
  0
VISUALSTYLE
  5
37
102
{ACAD_REACTORS
330
2A
102
}
330
2A
100
AcDbVisualStyle
  2
Thicken
 70
    13
 71
     2
 72
     2
 73
     0
 90
        0
 40
-0.6
 41
-30.0
 62
     5
 63
     7
 74
     1
 91
        4
 64
     7
 65
   257
 75
     1
175
     1
 42
1.0
 92
       12
 66
     7
 43
1.0
 76
     1
 77
     6
 78
     2
 67
     7
 79
     5
170
     0
171
     0
290
     0
174
     0
 93
        1
 44
0.0
173
     0
291
     1
 45
0.0
1001
ACAD
1000
AcDbSavedByObjectVersion
1070
     0
  0
XRECORD
  5
3BD
102
{ACAD_REACTORS
330
3B4
102
}
330
3B4
100
AcDbXrecord
 90
        0
  0
XRECORD
  5
3D3
102
{ACAD_REACTORS
330
3B4
102
}
330
3B4
100
AcDbXrecord
1000
DSTYLE
1002
{
1070
   340
340
11
1002
}
  0
XRECORD
  5
3BE
102
{ACAD_REACTORS
330
3B4
102
}
330
3B4
100
AcDbXrecord
  1
{CE428F29-11AB-445C-989A-AF79D260860A}
  0
XRECORD
  5
3B7
102
{ACAD_REACTORS
330
3B4
102
}
330
3B4
100
AcDbXrecord
  1

  0
XRECORD
  5
3BC
102
{ACAD_REACTORS
330
3B4
102
}
330
3B4
100
AcDbXrecord
 90
        1
  0
XRECORD
  5
3B9
102
{ACAD_REACTORS
330
3B4
102
}
330
3B4
100
AcDbXrecord
340
1A
  0
XRECORD
  5
3BB
102
{ACAD_REACTORS
330
3B4
102
}
330
3B4
100
AcDbXrecord
 90
    10781
  0
XRECORD
  5
3BA
102
{ACAD_REACTORS
330
3B4
102
}
330
3B4
100
AcDbXrecord
340
19
  0
XRECORD
  5
3C0
102
{ACAD_REACTORS
330
3B4
102
}
330
3B4
100
AcDbXrecord
 40
0.0
  0
XRECORD
  5
3C3
102
{ACAD_REACTORS
330
3B4
102
}
330
3B4
100
AcDbXrecord
340
0
  0
XRECORD
  5
3C9
102
{ACAD_REACTORS
330
3B4
102
}
330
3B4
100
AcDbXrecord
 10
0.0
 20
0.0
 30
0.0
  0
XRECORD
  5
3C5
102
{ACAD_REACTORS
330
3B4
102
}
330
3B4
100
AcDbXrecord
 10
0.0
 20
0.0
 30
0.0
  0
XRECORD
  5
3C8
102
{ACAD_REACTORS
330
3B4
102
}
330
3B4
100
AcDbXrecord
 10
0.0
 20
0.0
 30
0.0
  0
XRECORD
  5
3C6
102
{ACAD_REACTORS
330
3B4
102
}
330
3B4
100
AcDbXrecord
 10
0.0
 20
0.0
 30
0.0
  0
XRECORD
  5
3C7
102
{ACAD_REACTORS
330
3B4
102
}
330
3B4
100
AcDbXrecord
 10
0.0
 20
0.0
 30
0.0
  0
XRECORD
  5
3C4
102
{ACAD_REACTORS
330
3B4
102
}
330
3B4
100
AcDbXrecord
 10
0.0
 20
0.0
 30
0.0
  0
XRECORD
  5
3C1
102
{ACAD_REACTORS
330
3B4
102
}
330
3B4
100
AcDbXrecord
340
0
  0
XRECORD
  5
3C2
102
{ACAD_REACTORS
330
3B4
102
}
330
3B4
100
AcDbXrecord
 70
     0
  0
XRECORD
  5
3B8
102
{ACAD_REACTORS
330
3B4
102
}
330
3B4
100
AcDbXrecord
  1

  0
XRECORD
  5
3B5
102
{ACAD_REACTORS
330
3B4
102
}
330
3B4
100
AcDbXrecord
 90
        1
  0
XRECORD
  5
3B6
102
{ACAD_REACTORS
330
3B4
102
}
330
3B4
100
AcDbXrecord
 90
       70
  0
XRECORD
  5
3CC
102
{ACAD_REACTORS
330
3B4
102
}
330
3B4
100
AcDbXrecord
340
0
  0
XRECORD
  5
3D2
102
{ACAD_REACTORS
330
3B4
102
}
330
3B4
100
AcDbXrecord
 10
0.0
 20
0.0
 30
0.0
  0
XRECORD
  5
3CE
102
{ACAD_REACTORS
330
3B4
102
}
330
3B4
100
AcDbXrecord
 10
0.0
 20
0.0
 30
0.0
  0
XRECORD
  5
3D1
102
{ACAD_REACTORS
330
3B4
102
}
330
3B4
100
AcDbXrecord
 10
0.0
 20
0.0
 30
0.0
  0
XRECORD
  5
3CF
102
{ACAD_REACTORS
330
3B4
102
}
330
3B4
100
AcDbXrecord
 10
0.0
 20
0.0
 30
0.0
  0
XRECORD
  5
3D0
102
{ACAD_REACTORS
330
3B4
102
}
330
3B4
100
AcDbXrecord
 10
0.0
 20
0.0
 30
0.0
  0
XRECORD
  5
3CD
102
{ACAD_REACTORS
330
3B4
102
}
330
3B4
100
AcDbXrecord
 10
0.0
 20
0.0
 30
0.0
  0
XRECORD
  5
3CA
102
{ACAD_REACTORS
330
3B4
102
}
330
3B4
100
AcDbXrecord
340
0
  0
XRECORD
  5
3CB
102
{ACAD_REACTORS
330
3B4
102
}
330
3B4
100
AcDbXrecord
 70
     0
  0
XRECORD
  5
3BF
102
{ACAD_REACTORS
330
3B4
102
}
330
3B4
100
AcDbXrecord
  1
{FAEB1C32-E019-11D5-929B-00C0DF256EC4}
  0
ENDSEC
  0
EOF
