  0
SECTION
  2
HEADER
  9
$ACADVER
  1
AC1014
  9
$ACADMAINTVER
 70
     9
  9
$DWGCODEPAGE
  3
ANSI_1252
  9
$INSBASE
 10
0.0
 20
0.0
 30
0.0
  9
$EXTMIN
 10
1.000000000000000E+20
 20
1.000000000000000E+20
 30
1.000000000000000E+20
  9
$EXTMAX
 10
-1.000000000000000E+20
 20
-1.000000000000000E+20
 30
-1.000000000000000E+20
  9
$LIMMIN
 10
0.0
 20
0.0
  9
$LIMMAX
 10
12.0
 20
9.0
  9
$ORTHOMODE
 70
     0
  9
$REGENMODE
 70
     1
  9
$FILLMODE
 70
     1
  9
$QTEXTMODE
 70
     0
  9
$MIRRTEXT
 70
     1
  9
$DRAGMODE
 70
     2
  9
$LTSCALE
 40
1.0
  9
$OSMODE
 70
    37
  9
$ATTMODE
 70
     1
  9
$TEXTSIZE
 40
0.2
  9
$TRACEWID
 40
0.05
  9
$TEXTSTYLE
  7
STANDARD
  9
$CLAYER
  8
0
  9
$CELTYPE
  6
BYLAYER
  9
$CECOLOR
 62
   256
  9
$CELTSCALE
 40
1.0
  9
$DELOBJ
 70
     1
  9
$DISPSILH
 70
     0
  9
$DIMSCALE
 40
1.0
  9
$DIMASZ
 40
0.18
  9
$DIMEXO
 40
0.0625
  9
$DIMDLI
 40
0.38
  9
$DIMRND
 40
0.0
  9
$DIMDLE
 40
0.0
  9
$DIMEXE
 40
0.18
  9
$DIMTP
 40
0.0
  9
$DIMTM
 40
0.0
  9
$DIMTXT
 40
0.18
  9
$DIMCEN
 40
0.09
  9
$DIMTSZ
 40
0.0
  9
$DIMTOL
 70
     0
  9
$DIMLIM
 70
     0
  9
$DIMTIH
 70
     1
  9
$DIMTOH
 70
     1
  9
$DIMSE1
 70
     0
  9
$DIMSE2
 70
     0
  9
$DIMTAD
 70
     0
  9
$DIMZIN
 70
     0
  9
$DIMBLK
  1

  9
$DIMASO
 70
     1
  9
$DIMSHO
 70
     1
  9
$DIMPOST
  1

  9
$DIMAPOST
  1

  9
$DIMALT
 70
     0
  9
$DIMALTD
 70
     2
  9
$DIMALTF
 40
25.4
  9
$DIMLFAC
 40
1.0
  9
$DIMTOFL
 70
     0
  9
$DIMTVP
 40
0.0
  9
$DIMTIX
 70
     0
  9
$DIMSOXD
 70
     0
  9
$DIMSAH
 70
     0
  9
$DIMBLK1
  1

  9
$DIMBLK2
  1

  9
$DIMSTYLE
  2
STANDARD
  9
$DIMCLRD
 70
     0
  9
$DIMCLRE
 70
     0
  9
$DIMCLRT
 70
     0
  9
$DIMTFAC
 40
1.0
  9
$DIMGAP
 40
0.09
  9
$DIMJUST
 70
     0
  9
$DIMSD1
 70
     0
  9
$DIMSD2
 70
     0
  9
$DIMTOLJ
 70
     1
  9
$DIMTZIN
 70
     0
  9
$DIMALTZ
 70
     0
  9
$DIMALTTZ
 70
     0
  9
$DIMFIT
 70
     3
  9
$DIMUPT
 70
     0
  9
$DIMUNIT
 70
     2
  9
$DIMDEC
 70
     4
  9
$DIMTDEC
 70
     4
  9
$DIMALTU
 70
     2
  9
$DIMALTTD
 70
     2
  9
$DIMTXSTY
  7
STANDARD
  9
$DIMAUNIT
 70
     0
  9
$LUNITS
 70
     2
  9
$LUPREC
 70
     4
  9
$SKETCHINC
 40
0.1
  9
$FILLETRAD
 40
0.5
  9
$AUNITS
 70
     0
  9
$AUPREC
 70
     0
  9
$MENU
  1
.
  9
$ELEVATION
 40
0.0
  9
$PELEVATION
 40
0.0
  9
$THICKNESS
 40
0.0
  9
$LIMCHECK
 70
     0
  9
$CHAMFERA
 40
0.5
  9
$CHAMFERB
 40
0.5
  9
$CHAMFERC
 40
1.0
  9
$CHAMFERD
 40
0.0
  9
$SKPOLY
 70
     0
  9
$TDCREATE
 40
2459923.436293808
  9
$TDUPDATE
 40
2459923.436293819
  9
$TDINDWG
 40
0.0000000116
  9
$TDUSRTIMER
 40
0.0000000116
  9
$USRTIMER
 70
     1
  9
$ANGBASE
 50
0.0
  9
$ANGDIR
 70
     0
  9
$PDMODE
 70
     0
  9
$PDSIZE
 40
0.0
  9
$PLINEWID
 40
0.0
  9
$COORDS
 70
     1
  9
$SPLFRAME
 70
     0
  9
$SPLINETYPE
 70
     6
  9
$SPLINESEGS
 70
     8
  9
$ATTDIA
 70
     0
  9
$ATTREQ
 70
     1
  9
$HANDLING
 70
     1
  9
$HANDSEED
  5
123
  9
$SURFTAB1
 70
     6
  9
$SURFTAB2
 70
     6
  9
$SURFTYPE
 70
     6
  9
$SURFU
 70
     6
  9
$SURFV
 70
     6
  9
$UCSNAME
  2

  9
$UCSORG
 10
0.0
 20
0.0
 30
0.0
  9
$UCSXDIR
 10
1.0
 20
0.0
 30
0.0
  9
$UCSYDIR
 10
0.0
 20
1.0
 30
0.0
  9
$PUCSNAME
  2

  9
$PUCSORG
 10
0.0
 20
0.0
 30
0.0
  9
$PUCSXDIR
 10
1.0
 20
0.0
 30
0.0
  9
$PUCSYDIR
 10
0.0
 20
1.0
 30
0.0
  9
$USERI1
 70
     0
  9
$USERI2
 70
     0
  9
$USERI3
 70
     0
  9
$USERI4
 70
     0
  9
$USERI5
 70
     0
  9
$USERR1
 40
0.0
  9
$USERR2
 40
0.0
  9
$USERR3
 40
0.0
  9
$USERR4
 40
0.0
  9
$USERR5
 40
0.0
  9
$WORLDVIEW
 70
     1
  9
$SHADEDGE
 70
     3
  9
$SHADEDIF
 70
    70
  9
$TILEMODE
 70
     1
  9
$MAXACTVP
 70
    64
  9
$PINSBASE
 10
0.0
 20
0.0
 30
0.0
  9
$PLIMCHECK
 70
     0
  9
$PEXTMIN
 10
1.000000000000000E+20
 20
1.000000000000000E+20
 30
1.000000000000000E+20
  9
$PEXTMAX
 10
-1.000000000000000E+20
 20
-1.000000000000000E+20
 30
-1.000000000000000E+20
  9
$PLIMMIN
 10
0.0
 20
0.0
  9
$PLIMMAX
 10
12.0
 20
9.0
  9
$UNITMODE
 70
     0
  9
$VISRETAIN
 70
     1
  9
$PLINEGEN
 70
     0
  9
$PSLTSCALE
 70
     1
  9
$TREEDEPTH
 70
  3020
  9
$PICKSTYLE
 70
     1
  9
$CMLSTYLE
  2
STANDARD
  9
$CMLJUST
 70
     0
  9
$CMLSCALE
 40
1.0
  9
$PROXYGRAPHICS
 70
     1
  9
$MEASUREMENT
 70
     0
  0
ENDSEC
  0
SECTION
  2
CLASSES
  0
CLASS
  1
ACDBDICTIONARYWDFLT
  2
AcDbDictionaryWithDefault
  3
ObjectDBX Classes
 90
        0
280
     0
281
     0
  0
CLASS
  1
VISUALSTYLE
  2
AcDbVisualStyle
  3
ObjectDBX Classes
 90
     4095
280
     0
281
     0
  0
CLASS
  1
XRECORD
  2
AcDbXrecord
  3
AutoCAD 2000
 90
        0
280
     0
281
     0
  0
CLASS
  1
LWPOLYLINE
  2
AcDbPolyline
  3
AutoCAD 2000
 90
        0
280
     0
281
     1
  0
CLASS
  1
HATCH
  2
AcDbHatch
  3
AutoCAD 2000
 90
        0
280
     0
281
     1
  0
CLASS
  1
ACDBPLACEHOLDER
  2
AcDbPlaceHolder
  3
ObjectDBX Classes
 90
        0
280
     0
281
     0
  0
CLASS
  1
LAYOUT
  2
AcDbLayout
  3
ObjectDBX Classes
 90
        0
280
     0
281
     0
  0
ENDSEC
  0
SECTION
  2
TABLES
  0
TABLE
  2
VPORT
  5
8
330
0
100
AcDbSymbolTable
 70
     1
  0
VPORT
  5
29
330
8
100
AcDbSymbolTableRecord
100
AcDbViewportTableRecord
  2
*ACTIVE
 70
     0
 10
0.0
 20
0.0
 11
1.0
 21
1.0
 12
10.42990654205607
 22
4.5
 13
0.0
 23
0.0
 14
0.5
 24
0.5
 15
0.5
 25
0.5
 16
0.0
 26
0.0
 36
1.0
 17
0.0
 27
0.0
 37
0.0
 40
9.0
 41
1.972972972850329
 42
50.0
 43
0.0
 44
0.0
 50
0.0
 51
0.0
 71
     0
 72
   100
 73
     1
 74
     3
 75
     0
 76
     0
 77
     0
 78
     0
  0
ENDTAB
  0
TABLE
  2
LTYPE
  5
5
330
0
100
AcDbSymbolTable
 70
    11
  0
LTYPE
  5
14
330
5
100
AcDbSymbolTableRecord
100
AcDbLinetypeTableRecord
  2
BYBLOCK
 70
     0
  3

 72
    65
 73
     0
 40
0.0
  0
LTYPE
  5
15
330
5
100
AcDbSymbolTableRecord
100
AcDbLinetypeTableRecord
  2
BYLAYER
 70
     0
  3

 72
    65
 73
     0
 40
0.0
  0
LTYPE
  5
16
330
5
100
AcDbSymbolTableRecord
100
AcDbLinetypeTableRecord
  2
CONTINUOUS
 70
     0
  3
Solid line
 72
    65
 73
     0
 40
0.0
  0
LTYPE
  5
60
330
5
100
AcDbSymbolTableRecord
100
AcDbLinetypeTableRecord
  2
STITCH_G
 70
     0
  3
Graphite's line style                   
 72
    65
 73
     8
 40
25.18000000715256
 49
1.0
 74
     0
 49
-0.0450000017881393
 74
     0
 49
8.0
 74
     0
 49
-0.0450000017881393
 74
     0
 49
8.0
 74
     0
 49
-0.0450000017881393
 74
     0
 49
8.0
 74
     0
 49
-0.0450000017881393
 74
     0
  0
LTYPE
  5
61
330
5
100
AcDbSymbolTableRecord
100
AcDbLinetypeTableRecord
  2
CUTTING_G
 70
     0
  3
Graphite's line style                   
 72
    65
 73
    12
 40
52.27000001072884
 49
2.0
 74
     0
 49
-0.0450000017881393
 74
     0
 49
10.0
 74
     0
 49
-0.0450000017881393
 74
     0
 49
10.0
 74
     0
 49
-0.0450000017881393
 74
     0
 49
10.0
 74
     0
 49
-0.0450000017881393
 74
     0
 49
10.0
 74
     0
 49
-0.0450000017881393
 74
     0
 49
10.0
 74
     0
 49
-0.0450000017881393
 74
     0
  0
LTYPE
  5
62
330
5
100
AcDbSymbolTableRecord
100
AcDbLinetypeTableRecord
  2
DIVIDE_G
 70
     0
  3
Graphite's line style                   
 72
    65
 73
     4
 40
0.75
 49
0.0
 74
     0
 49
-0.375
 74
     0
 49
0.375
 74
     0
 49
0.0
 74
     0
  0
LTYPE
  5
63
330
5
100
AcDbSymbolTableRecord
100
AcDbLinetypeTableRecord
  2
BORDER_G
 70
     0
  3
Graphite's line style                   
 72
    65
 73
     4
 40
0.5
 49
0.0
 74
     0
 49
-0.25
 74
     0
 49
0.25
 74
     0
 49
0.0
 74
     0
  0
LTYPE
  5
64
330
5
100
AcDbSymbolTableRecord
100
AcDbLinetypeTableRecord
  2
DASHDOT_G
 70
     0
  3
Graphite's line style                   
 72
    65
 73
     4
 40
0.25
 49
0.0
 74
     0
 49
-0.125
 74
     0
 49
0.125
 74
     0
 49
0.0
 74
     0
  0
LTYPE
  5
65
330
5
100
AcDbSymbolTableRecord
100
AcDbLinetypeTableRecord
  2
PHANTOM_G
 70
     0
  3
Graphite's line style                   
 72
    65
 73
     6
 40
0.9674999937415123
 49
0.5
 74
     0
 49
-0.0724999979138374
 74
     0
 49
0.125
 74
     0
 49
-0.0724999979138374
 74
     0
 49
0.125
 74
     0
 49
-0.0724999979138374
 74
     0
  0
LTYPE
  5
66
330
5
100
AcDbSymbolTableRecord
100
AcDbLinetypeTableRecord
  2
HIDDEN_G
 70
     0
  3
Graphite's line style                   
 72
    65
 73
     2
 40
0.1974999979138374
 49
0.125
 74
     0
 49
-0.0724999979138374
 74
     0
  0
LTYPE
  5
67
330
5
100
AcDbSymbolTableRecord
100
AcDbLinetypeTableRecord
  2
DASHED_G
 70
     0
  3
Graphite's line style                   
 72
    65
 73
     2
 40
0.375
 49
0.25
 74
     0
 49
-0.125
 74
     0
  0
LTYPE
  5
68
330
5
100
AcDbSymbolTableRecord
100
AcDbLinetypeTableRecord
  2
CENTER_G
 70
     0
  3
Graphite's line style                   
 72
    65
 73
     2
 40
0.5724999979138374
 49
0.5
 74
     0
 49
-0.0724999979138374
 74
     0
  0
LTYPE
  5
69
330
5
100
AcDbSymbolTableRecord
100
AcDbLinetypeTableRecord
  2
DOTTED_G
 70
     0
  3

 72
    65
 73
     2
 40
0.1001
 49
0.0001
 74
     0
 49
-0.1
 74
     2
 75
     0
340
0
 46
0.0
 50
0.0
 44
0.0
 45
0.0
  9
.
  0
ENDTAB
  0
TABLE
  2
LAYER
  5
2
330
0
100
AcDbSymbolTable
 70
    10
  0
LAYER
  5
10
330
2
100
AcDbSymbolTableRecord
100
AcDbLayerTableRecord
  2
0
 70
     0
 62
     7
  6
CONTINUOUS
  0
LAYER
  5
6A
330
2
100
AcDbSymbolTableRecord
100
AcDbLayerTableRecord
  2
LAYER1
 70
     0
 62
     7
  6
CONTINUOUS
  0
LAYER
  5
6B
330
2
100
AcDbSymbolTableRecord
100
AcDbLayerTableRecord
  2
CONSTRUCTION
 70
     0
 62
     7
  6
CONTINUOUS
  0
LAYER
  5
6C
330
2
100
AcDbSymbolTableRecord
100
AcDbLayerTableRecord
  2
DIMENSION
 70
     0
 62
     7
  6
CONTINUOUS
  0
LAYER
  5
6D
330
2
100
AcDbSymbolTableRecord
100
AcDbLayerTableRecord
  2
MAINDIMENSIONS
 70
     0
 62
     7
  6
CONTINUOUS
  0
LAYER
  5
6E
330
2
100
AcDbSymbolTableRecord
100
AcDbLayerTableRecord
  2
THRU-CUT
 70
     0
 62
     7
  6
CONTINUOUS
  0
LAYER
  5
6F
330
2
100
AcDbSymbolTableRecord
100
AcDbLayerTableRecord
  2
CREASE
 70
     0
 62
     7
  6
CONTINUOUS
  0
LAYER
  5
70
330
2
100
AcDbSymbolTableRecord
100
AcDbLayerTableRecord
  2
NOMEASURE
 70
     0
 62
     7
  6
CONTINUOUS
  0
LAYER
  5
71
330
2
100
AcDbSymbolTableRecord
100
AcDbLayerTableRecord
  2
CONNECTA
 70
     0
 62
     7
  6
CONTINUOUS
  0
LAYER
  5
72
330
2
100
AcDbSymbolTableRecord
100
AcDbLayerTableRecord
  2
UNASSIGNED
 70
     0
 62
     7
  6
CONTINUOUS
  0
ENDTAB
  0
TABLE
  2
STYLE
  5
3
330
0
100
AcDbSymbolTable
 70
     4
  0
STYLE
  5
11
330
3
100
AcDbSymbolTableRecord
100
AcDbTextStyleTableRecord
  2
STANDARD
 70
     0
 40
0.0
 41
1.0
 50
0.0
 71
     0
 42
0.2
  3
txt
  4

  0
STYLE
  5
3B
330
3
100
AcDbSymbolTableRecord
100
AcDbTextStyleTableRecord
  2
ODASHXSTYLE
 70
     0
 40
0.0
 41
1.0
 50
0.0
 71
     0
 42
0.2
  3
txt
  4

  0
STYLE
  5
3C
330
3
100
AcDbSymbolTableRecord
100
AcDbTextStyleTableRecord
  2
ODATTFSTYLE
 70
     0
 40
0.0
 41
1.0
 50
0.0
 71
     0
 42
0.2
  3
VERDANA.TTF
  4

1001
ACAD
1000
Verdana
1071
       34
  0
STYLE
  5
3D
330
3
100
AcDbSymbolTableRecord
100
AcDbTextStyleTableRecord
  2

 70
     1
 40
0.0
 41
1.0
 50
0.0
 71
     0
 42
22.45
  3
ltypeshp.shx
  4

  0
ENDTAB
  0
TABLE
  2
VIEW
  5
6
330
0
100
AcDbSymbolTable
 70
     0
  0
ENDTAB
  0
TABLE
  2
UCS
  5
7
330
0
100
AcDbSymbolTable
 70
     0
  0
ENDTAB
  0
TABLE
  2
APPID
  5
9
330
0
100
AcDbSymbolTable
 70
     1
  0
APPID
  5
12
330
9
100
AcDbSymbolTableRecord
100
AcDbRegAppTableRecord
  2
ACAD
 70
     0
  0
ENDTAB
  0
TABLE
  2
DIMSTYLE
  5
A
330
0
100
AcDbSymbolTable
 70
     9
  0
DIMSTYLE
105
27
330
A
100
AcDbSymbolTableRecord
100
AcDbDimStyleTableRecord
  2
STANDARD
 70
     0
  3

  4

  5

  6

  7

 40
1.0
 41
0.18
 42
0.0625
 43
0.38
 44
0.18
 45
0.0
 46
0.0
 47
0.0
 48
0.0
140
0.18
141
0.09
142
0.0
143
25.4
144
1.0
145
0.0
146
1.0
147
0.09
 71
     0
 72
     0
 73
     1
 74
     1
 75
     0
 76
     0
 77
     0
 78
     0
170
     0
171
     2
172
     0
173
     0
174
     0
175
     0
176
     0
177
     0
178
     0
270
     2
271
     4
272
     4
273
     2
274
     2
340
11
275
     0
280
     0
281
     0
282
     0
283
     1
284
     0
285
     0
286
     0
287
     3
288
     0
  0
DIMSTYLE
105
3E
330
A
100
AcDbSymbolTableRecord
100
AcDbDimStyleTableRecord
  2
ODADIMSTYLE0
 70
     0
  3

  4

  5

  6

  7

 40
1.0
 41
0.18
 42
0.0625
 43
0.38
 44
0.18
 45
0.0
 46
0.0
 47
0.0
 48
0.0
140
0.18
141
0.09
142
0.0
143
25.4
144
1.0
145
0.0
146
1.0
147
0.09
 71
     0
 72
     0
 73
     1
 74
     1
 75
     0
 76
     0
 77
     0
 78
     0
170
     0
171
     2
172
     0
173
     0
174
     0
175
     0
176
     0
177
     0
178
     0
270
     2
271
     4
272
     4
273
     2
274
     2
340
11
275
     0
280
     0
281
     0
282
     0
283
     1
284
     0
285
     0
286
     0
287
     3
288
     0
  0
DIMSTYLE
105
3F
330
A
100
AcDbSymbolTableRecord
100
AcDbDimStyleTableRecord
  2
ODADIMSTYLE1
 70
     0
  3

  4

  5

  6

  7

 40
1.0
 41
0.18
 42
0.0625
 43
0.38
 44
0.18
 45
0.0
 46
0.0
 47
0.0
 48
0.0
140
0.18
141
0.09
142
0.0
143
25.4
144
1.0
145
0.0
146
1.0
147
0.09
 71
     0
 72
     0
 73
     1
 74
     1
 75
     0
 76
     0
 77
     0
 78
     0
170
     0
171
     2
172
     0
173
     0
174
     0
175
     0
176
     0
177
     0
178
     0
270
     2
271
     4
272
     4
273
     2
274
     2
340
11
275
     0
280
     0
281
     0
282
     0
283
     1
284
     0
285
     0
286
     0
287
     3
288
     0
  0
DIMSTYLE
105
40
330
A
100
AcDbSymbolTableRecord
100
AcDbDimStyleTableRecord
  2
ODADIMSTYLE2
 70
     0
  3

  4

  5
CLOSEDBLANK
  6

  7

 40
1.0
 41
0.18
 42
0.0625
 43
0.38
 44
0.18
 45
0.0
 46
0.0
 47
0.0
 48
0.0
140
0.18
141
0.09
142
0.0
143
25.4
144
1.0
145
0.0
146
1.0
147
0.09
 71
     0
 72
     0
 73
     1
 74
     1
 75
     0
 76
     0
 77
     0
 78
     0
170
     0
171
     2
172
     0
173
     0
174
     0
175
     0
176
     0
177
     0
178
     0
270
     2
271
     4
272
     4
273
     2
274
     2
340
11
275
     0
280
     0
281
     0
282
     0
283
     1
284
     0
285
     0
286
     0
287
     3
288
     0
  0
DIMSTYLE
105
47
330
A
100
AcDbSymbolTableRecord
100
AcDbDimStyleTableRecord
  2
ODADIMSTYLE3
 70
     0
  3

  4

  5
NONE
  6

  7

 40
1.0
 41
0.18
 42
0.0625
 43
0.38
 44
0.18
 45
0.0
 46
0.0
 47
0.0
 48
0.0
140
0.18
141
0.09
142
0.0
143
25.4
144
1.0
145
0.0
146
1.0
147
0.09
 71
     0
 72
     0
 73
     1
 74
     1
 75
     0
 76
     0
 77
     0
 78
     0
170
     0
171
     2
172
     0
173
     0
174
     0
175
     0
176
     0
177
     0
178
     0
270
     2
271
     4
272
     4
273
     2
274
     2
340
11
275
     0
280
     0
281
     0
282
     0
283
     1
284
     0
285
     0
286
     0
287
     3
288
     0
  0
DIMSTYLE
105
4B
330
A
100
AcDbSymbolTableRecord
100
AcDbDimStyleTableRecord
  2
ODADIMSTYLE4
 70
     0
  3

  4

  5
OBLIQUE
  6

  7

 40
1.0
 41
0.18
 42
0.0625
 43
0.38
 44
0.18
 45
0.0
 46
0.0
 47
0.0
 48
0.0
140
0.18
141
0.09
142
0.0
143
25.4
144
1.0
145
0.0
146
1.0
147
0.09
 71
     0
 72
     0
 73
     1
 74
     1
 75
     0
 76
     0
 77
     0
 78
     0
170
     0
171
     2
172
     0
173
     0
174
     0
175
     0
176
     0
177
     0
178
     0
270
     2
271
     4
272
     4
273
     2
274
     2
340
11
275
     0
280
     0
281
     0
282
     0
283
     1
284
     0
285
     0
286
     0
287
     3
288
     0
  0
DIMSTYLE
105
50
330
A
100
AcDbSymbolTableRecord
100
AcDbDimStyleTableRecord
  2
ODADIMSTYLE5
 70
     0
  3

  4

  5

  6

  7

 40
1.0
 41
0.18
 42
0.0625
 43
0.38
 44
0.18
 45
0.0
 46
0.0
 47
0.0
 48
0.0
140
0.18
141
0.09
142
0.0
143
25.4
144
1.0
145
0.0
146
1.0
147
0.09
 71
     0
 72
     0
 73
     1
 74
     1
 75
     0
 76
     0
 77
     0
 78
     0
170
     0
171
     2
172
     0
173
     0
174
     0
175
     0
176
     0
177
     0
178
     0
270
     2
271
     4
272
     4
273
     2
274
     2
340
11
275
     0
280
     0
281
     0
282
     0
283
     1
284
     0
285
     0
286
     0
287
     3
288
     0
  0
DIMSTYLE
105
51
330
A
100
AcDbSymbolTableRecord
100
AcDbDimStyleTableRecord
  2
ODADIMSTYLE6
 70
     0
  3

  4

  5
DOT
  6

  7

 40
1.0
 41
0.18
 42
0.0625
 43
0.38
 44
0.18
 45
0.0
 46
0.0
 47
0.0
 48
0.0
140
0.18
141
0.09
142
0.0
143
25.4
144
1.0
145
0.0
146
1.0
147
0.09
 71
     0
 72
     0
 73
     1
 74
     1
 75
     0
 76
     0
 77
     0
 78
     0
170
     0
171
     2
172
     0
173
     0
174
     0
175
     0
176
     0
177
     0
178
     0
270
     2
271
     4
272
     4
273
     2
274
     2
340
11
275
     0
280
     0
281
     0
282
     0
283
     1
284
     0
285
     0
286
     0
287
     3
288
     0
  0
DIMSTYLE
105
5A
330
A
100
AcDbSymbolTableRecord
100
AcDbDimStyleTableRecord
  2
ODADIMSTYLE7
 70
     0
  3

  4

  5
DOTBLANK
  6

  7

 40
1.0
 41
0.18
 42
0.0625
 43
0.38
 44
0.18
 45
0.0
 46
0.0
 47
0.0
 48
0.0
140
0.18
141
0.09
142
0.0
143
25.4
144
1.0
145
0.0
146
1.0
147
0.09
 71
     0
 72
     0
 73
     1
 74
     1
 75
     0
 76
     0
 77
     0
 78
     0
170
     0
171
     2
172
     0
173
     0
174
     0
175
     0
176
     0
177
     0
178
     0
270
     2
271
     4
272
     4
273
     2
274
     2
340
11
275
     0
280
     0
281
     0
282
     0
283
     1
284
     0
285
     0
286
     0
287
     3
288
     0
  0
ENDTAB
  0
TABLE
  2
BLOCK_RECORD
  5
1
330
0
100
AcDbSymbolTable
 70
     6
  0
BLOCK_RECORD
  5
1F
330
1
100
AcDbSymbolTableRecord
100
AcDbBlockTableRecord
  2
*MODEL_SPACE
  0
BLOCK_RECORD
  5
1B
330
1
100
AcDbSymbolTableRecord
100
AcDbBlockTableRecord
  2
*PAPER_SPACE
  0
BLOCK_RECORD
  5
41
330
1
100
AcDbSymbolTableRecord
100
AcDbBlockTableRecord
  2
_CLOSEDBLANK
  0
BLOCK_RECORD
  5
48
330
1
100
AcDbSymbolTableRecord
100
AcDbBlockTableRecord
  2
_NONE
  0
BLOCK_RECORD
  5
4C
330
1
100
AcDbSymbolTableRecord
100
AcDbBlockTableRecord
  2
_OBLIQUE
  0
BLOCK_RECORD
  5
52
330
1
100
AcDbSymbolTableRecord
100
AcDbBlockTableRecord
  2
_DOT
  0
BLOCK_RECORD
  5
5B
330
1
100
AcDbSymbolTableRecord
100
AcDbBlockTableRecord
  2
_DOTBLANK
  0
ENDTAB
  0
ENDSEC
  0
SECTION
  2
BLOCKS
  0
BLOCK
  5
20
330
1F
100
AcDbEntity
  8
0
100
AcDbBlockBegin
  2
*MODEL_SPACE
 70
     0
 10
0.0
 20
0.0
 30
0.0
  3
*MODEL_SPACE
  1

  0
ENDBLK
  5
21
330
1F
100
AcDbEntity
  8
0
100
AcDbBlockEnd
  0
BLOCK
  5
1C
330
1B
100
AcDbEntity
 67
     1
  8
0
100
AcDbBlockBegin
  2
*PAPER_SPACE
 70
     0
 10
0.0
 20
0.0
 30
0.0
  3
*PAPER_SPACE
  1

  0
ENDBLK
  5
1D
330
1B
100
AcDbEntity
 67
     1
  8
0
100
AcDbBlockEnd
  0
BLOCK
  5
42
330
41
100
AcDbEntity
  8
0
100
AcDbBlockBegin
  2
_CLOSEDBLANK
 70
     0
 10
0.0
 20
0.0
 30
0.0
  3
_CLOSEDBLANK
  1

  0
LINE
  5
44
330
41
100
AcDbEntity
  8
0
  6
BYBLOCK
 62
     0
100
AcDbLine
 10
-1.0
 20
0.166667
 30
0.0
 11
0.0
 21
0.0
 31
0.0
  0
LINE
  5
45
330
41
100
AcDbEntity
  8
0
  6
BYBLOCK
 62
     0
100
AcDbLine
 10
0.0
 20
0.0
 30
0.0
 11
-1.0
 21
-0.166667
 31
0.0
  0
LINE
  5
46
330
41
100
AcDbEntity
  8
0
  6
BYBLOCK
 62
     0
100
AcDbLine
 10
-1.0
 20
0.166667
 30
0.0
 11
-1.0
 21
-0.166667
 31
0.0
  0
ENDBLK
  5
43
330
41
100
AcDbEntity
  8
0
100
AcDbBlockEnd
  0
BLOCK
  5
49
330
48
100
AcDbEntity
  8
0
100
AcDbBlockBegin
  2
_NONE
 70
     0
 10
0.0
 20
0.0
 30
0.0
  3
_NONE
  1

  0
ENDBLK
  5
4A
330
48
100
AcDbEntity
  8
0
100
AcDbBlockEnd
  0
BLOCK
  5
4D
330
4C
100
AcDbEntity
  8
0
100
AcDbBlockBegin
  2
_OBLIQUE
 70
     0
 10
0.0
 20
0.0
 30
0.0
  3
_OBLIQUE
  1

  0
LINE
  5
4F
330
4C
100
AcDbEntity
  8
0
  6
BYBLOCK
 62
     0
100
AcDbLine
 10
-0.5
 20
-0.5
 30
0.0
 11
0.5
 21
0.5
 31
0.0
  0
ENDBLK
  5
4E
330
4C
100
AcDbEntity
  8
0
100
AcDbBlockEnd
  0
BLOCK
  5
53
330
52
100
AcDbEntity
  8
0
100
AcDbBlockBegin
  2
_DOT
 70
     0
 10
0.0
 20
0.0
 30
0.0
  3
_DOT
  1

  0
POLYLINE
  5
55
330
52
100
AcDbEntity
  8
0
  6
BYBLOCK
 62
     0
100
AcDb2dPolyline
 66
     1
 10
0.0
 20
0.0
 30
0.0
 70
     1
 40
0.5
 41
0.5
  0
VERTEX
  5
57
330
55
100
AcDbEntity
  8
0
  6
BYBLOCK
 62
     0
100
AcDbVertex
100
AcDb2dVertex
 10
-0.25
 20
0.0
 30
0.0
 42
1.0
  0
VERTEX
  5
58
330
55
100
AcDbEntity
  8
0
  6
BYBLOCK
 62
     0
100
AcDbVertex
100
AcDb2dVertex
 10
0.25
 20
0.0
 30
0.0
 42
1.0
  0
SEQEND
  5
59
330
55
100
AcDbEntity
  8
0
  6
BYBLOCK
 62
     0
  0
LINE
  5
56
330
52
100
AcDbEntity
  8
0
  6
BYBLOCK
 62
     0
100
AcDbLine
 10
-0.5
 20
0.0
 30
0.0
 11
-1.0
 21
0.0
 31
0.0
  0
ENDBLK
  5
54
330
52
100
AcDbEntity
  8
0
100
AcDbBlockEnd
  0
BLOCK
  5
5C
330
5B
100
AcDbEntity
  8
0
100
AcDbBlockBegin
  2
_DOTBLANK
 70
     0
 10
0.0
 20
0.0
 30
0.0
  3
_DOTBLANK
  1

  0
CIRCLE
  5
5E
330
5B
100
AcDbEntity
  8
0
  6
BYBLOCK
 62
     0
100
AcDbCircle
 10
0.0
 20
0.0
 30
0.0
 40
0.5
  0
LINE
  5
5F
330
5B
100
AcDbEntity
  8
0
  6
BYBLOCK
 62
     0
100
AcDbLine
 10
-0.5
 20
0.0
 30
0.0
 11
-1.0
 21
0.0
 31
0.0
  0
ENDBLK
  5
5D
330
5B
100
AcDbEntity
  8
0
100
AcDbBlockEnd
  0
ENDSEC
  0
SECTION
  2
ENTITIES
  0
LINE
  5
73
330
1F
100
AcDbEntity
  8
THRU-CUT
 62
     5
100
AcDbLine
 10
30.06614600161368
 20
0.0
 30
0.0
 11
28.16662694877536
 21
0.0
 31
0.0
  0
LINE
  5
74
330
1F
100
AcDbEntity
  8
THRU-CUT
 62
     5
100
AcDbLine
 10
28.16662694877536
 20
0.0
 30
0.0
 11
28.11638647519452
 21
0.1875
 31
0.0
  0
LINE
  5
75
330
1F
100
AcDbEntity
  8
THRU-CUT
 62
     5
100
AcDbLine
 10
30.11638647519452
 20
0.1875
 30
0.0
 11
32.11638647519452
 21
0.1875
 31
0.0
  0
LINE
  5
76
330
1F
100
AcDbEntity
  8
THRU-CUT
 62
     5
100
AcDbLine
 10
32.86638647519452
 20
6.0
 30
0.0
 11
32.86638647519452
 21
0.1875
 31
0.0
  0
LINE
  5
77
330
1F
100
AcDbEntity
  8
THRU-CUT
 62
     5
100
AcDbLine
 10
38.36638647519452
 20
0.1875
 30
0.0
 11
32.86638647519452
 21
0.1875
 31
0.0
  0
LINE
  5
78
330
1F
100
AcDbEntity
  8
THRU-CUT
 62
     5
100
AcDbLine
 10
38.36638647519452
 20
12.375
 30
0.0
 11
38.36638647519452
 21
0.1875
 31
0.0
  0
LINE
  5
79
330
1F
100
AcDbEntity
  8
THRU-CUT
 62
     5
100
AcDbLine
 10
20.11638647519452
 20
6.0
 30
0.0
 11
20.11638647519452
 21
0.1875
 31
0.0
  0
LINE
  5
7A
330
1F
100
AcDbEntity
  8
THRU-CUT
 62
     5
100
AcDbLine
 10
24.06614600161369
 20
0.0
 30
0.0
 11
24.11638647519452
 21
0.1875
 31
0.0
  0
LINE
  5
7B
330
1F
100
AcDbEntity
  8
THRU-CUT
 62
     5
100
AcDbLine
 10
22.16662694877536
 20
0.0
 30
0.0
 11
24.06614600161369
 21
0.0
 31
0.0
  0
LINE
  5
7C
330
1F
100
AcDbEntity
  8
THRU-CUT
 62
     5
100
AcDbLine
 10
22.11638647519452
 20
0.1875
 30
0.0
 11
22.16662694877536
 21
0.0
 31
0.0
  0
LINE
  5
7D
330
1F
100
AcDbEntity
  8
THRU-CUT
 62
     5
100
AcDbLine
 10
24.11638647519452
 20
0.1875
 30
0.0
 11
28.11638647519452
 21
0.1875
 31
0.0
  0
LINE
  5
7E
330
1F
100
AcDbEntity
  8
THRU-CUT
 62
     5
100
AcDbLine
 10
38.7013404469119
 20
12.36586274611812
 30
0.0
 11
38.68151163667099
 21
12.32413962456953
 31
0.0
  0
LINE
  5
7F
330
1F
100
AcDbEntity
  8
THRU-CUT
 62
     5
100
AcDbLine
 10
44.80388647519452
 20
25.0625
 30
0.0
 11
44.80388647519452
 21
31.10580377317115
 31
0.0
  0
LINE
  5
80
330
1F
100
AcDbEntity
  8
THRU-CUT
 62
     5
100
AcDbLine
 10
5.606956531813751
 20
11.10221925439045
 30
0.0
 11
5.530211128141922
 21
10.93114502192048
 31
0.0
  0
LINE
  5
81
330
1F
100
AcDbEntity
  8
THRU-CUT
 62
     5
100
AcDbLine
 10
5.530211128141922
 20
10.93114502192048
 30
0.0
 11
6.975028190792589
 21
9.754399936962885
 31
0.0
  0
ARC
  5
82
330
1F
100
AcDbEntity
  8
THRU-CUT
 62
     5
100
AcDbCircle
 10
22.24138647519452
 20
24.875
 30
0.0
 40
0.125
100
AcDbArc
 50
89.99999999999837
 51
270.0000000000016
  0
LINE
  5
83
330
1F
100
AcDbEntity
  8
THRU-CUT
 62
     5
100
AcDbLine
 10
28.27263647519452
 20
12.6875
 30
0.0
 11
29.96013647519452
 21
12.6875
 31
0.0
  0
LINE
  5
84
330
1F
100
AcDbEntity
  8
THRU-CUT
 62
     5
100
AcDbLine
 10
44.62498121560866
 20
24.83019019691753
 30
0.0
 11
44.42888647519452
 21
25.0
 31
0.0
  0
LINE
  5
85
330
1F
100
AcDbEntity
  8
THRU-CUT
 62
     5
100
AcDbLine
 10
44.42888647519452
 20
25.0
 30
0.0
 11
44.36638647519452
 21
25.0625
 31
0.0
  0
ARC
  5
86
330
1F
100
AcDbEntity
  8
THRU-CUT
 62
     5
100
AcDbCircle
 10
-32.27263647519452
 20
21.46875000000001
 30
0.0
 40
0.1562500000000071
210
0.0
220
0.0
230
-1.0
100
AcDbArc
 50
0.0
 51
180.0
  0
ARC
  5
87
330
1F
100
AcDbEntity
  8
THRU-CUT
 62
     5
100
AcDbCircle
 10
-19.96013647519452
 20
21.46875
 30
0.0
 40
0.1562499999999964
210
0.0
220
0.0
230
-1.0
100
AcDbArc
 50
0.0
 51
180.0
  0
LINE
  5
88
330
1F
100
AcDbEntity
  8
THRU-CUT
 62
     5
100
AcDbLine
 10
32.42888647519452
 20
17.59375
 30
0.0
 11
32.42888647519452
 21
15.90625
 31
0.0
  0
LINE
  5
89
330
1F
100
AcDbEntity
  8
THRU-CUT
 62
     5
100
AcDbLine
 10
2.624733791687714
 20
13.531119107812
 30
0.0
 11
2.547988388015638
 21
13.36004487534148
 31
0.0
  0
LINE
  5
8A
330
1F
100
AcDbEntity
  8
THRU-CUT
 62
     5
100
AcDbLine
 10
4.166872458467934
 20
12.27510951090983
 30
0.0
 11
4.014871873029204
 21
12.16532758149365
 31
0.0
  0
LINE
  5
8B
330
1F
100
AcDbEntity
  8
THRU-CUT
 62
     5
100
AcDbLine
 10
32.42888647519452
 20
21.46875000000001
 30
0.0
 11
32.42888647519452
 21
19.78125
 31
0.0
  0
ARC
  5
8C
330
1F
100
AcDbEntity
  8
THRU-CUT
 62
     5
100
AcDbCircle
 10
19.96013647519452
 20
15.90625000000001
 30
0.0
 40
0.1562500000000036
100
AcDbArc
 50
180.0
 51
0.0
  0
LINE
  5
8D
330
1F
100
AcDbEntity
  8
THRU-CUT
 62
     5
100
AcDbLine
 10
48.06590049192111
 20
12.27510951091775
 30
0.0
 11
48.21790107735981
 21
12.16532758150178
 31
0.0
  0
LINE
  5
8E
330
1F
100
AcDbEntity
  8
THRU-CUT
 62
     5
100
AcDbLine
 10
49.60803915870028
 20
13.5311191078213
 30
0.0
 11
49.68478456237231
 21
13.36004487535125
 31
0.0
  0
LINE
  5
8F
330
1F
100
AcDbEntity
  8
THRU-CUT
 62
     5
100
AcDbLine
 10
49.68478456237231
 20
13.36004487535125
 30
0.0
 11
48.21790107735981
 21
12.16532758150178
 31
0.0
  0
LINE
  5
90
330
1F
100
AcDbEntity
  8
THRU-CUT
 62
     5
100
AcDbLine
 10
44.62498121560866
 20
24.83019019691753
 30
0.0
 11
52.14484312229541
 21
15.59724337561694
 31
0.0
  0
LINE
  5
91
330
1F
100
AcDbEntity
  8
THRU-CUT
 62
     5
100
AcDbLine
 10
45.1057441741601
 20
9.864181866383861
 30
0.0
 11
45.25774475959883
 21
9.754399936967866
 31
0.0
  0
LINE
  5
92
330
1F
100
AcDbEntity
  8
THRU-CUT
 62
     5
100
AcDbLine
 10
46.70256182224831
 20
10.93114502192697
 30
0.0
 11
45.25774475959883
 21
9.754399936967866
 31
0.0
  0
LINE
  5
93
330
1F
100
AcDbEntity
  8
THRU-CUT
 62
     5
100
AcDbLine
 10
46.62581641857626
 20
11.10221925439705
 30
0.0
 11
46.70256182224831
 21
10.93114502192697
 31
0.0
  0
LINE
  5
94
330
1F
100
AcDbEntity
  8
THRU-CUT
 62
     5
100
AcDbLine
 10
48.06590049192111
 20
12.27510951091775
 30
0.0
 11
46.62581641857626
 21
11.10221925439705
 31
0.0
  0
LINE
  5
95
330
1F
100
AcDbEntity
  8
THRU-CUT
 62
     5
100
AcDbLine
 10
7.60779173479113
 20
24.83019019689493
 30
0.0
 11
0.0879298280687717
 21
15.59724337562336
 31
0.0
  0
LINE
  5
96
330
1F
100
AcDbEntity
  8
THRU-CUT
 62
     5
100
AcDbLine
 10
0.0879298280687717
 20
15.59724337562336
 30
0.0
 11
2.624733791687714
 21
13.531119107812
 31
0.0
  0
LINE
  5
97
330
1F
100
AcDbEntity
  8
THRU-CUT
 62
     5
100
AcDbLine
 10
19.36638647519452
 20
6.0
 30
0.0
 11
19.36638647519452
 21
0.1875
 31
0.0
  0
LINE
  5
98
330
1F
100
AcDbEntity
  8
THRU-CUT
 62
     5
100
AcDbLine
 10
13.86638647519452
 20
0.1875
 30
0.0
 11
19.36638647519452
 21
0.1875
 31
0.0
  0
LINE
  5
99
330
1F
100
AcDbEntity
  8
THRU-CUT
 62
     5
100
AcDbLine
 10
20.11638647519452
 20
0.1875
 30
0.0
 11
22.11638647519452
 21
0.1875
 31
0.0
  0
LINE
  5
9A
330
1F
100
AcDbEntity
  8
THRU-CUT
 62
     5
100
AcDbLine
 10
32.11638647519452
 20
6.0
 30
0.0
 11
32.11638647519452
 21
0.1875
 31
0.0
  0
LINE
  5
9B
330
1F
100
AcDbEntity
  8
THRU-CUT
 62
     5
100
AcDbLine
 10
13.86638647519452
 20
12.375
 30
0.0
 11
13.86638647519452
 21
0.1875
 31
0.0
  0
LINE
  5
9C
330
1F
100
AcDbEntity
  8
THRU-CUT
 62
     5
100
AcDbLine
 10
30.11638647519452
 20
0.1875
 30
0.0
 11
30.06614600161368
 21
0.0
 31
0.0
  0
LINE
  5
9D
330
1F
100
AcDbEntity
  8
THRU-CUT
 62
     5
100
AcDbLine
 10
20.11638647519452
 20
37.1875
 30
0.0
 11
20.11638647519452
 21
49.125
 31
0.0
  0
LINE
  5
9E
330
1F
100
AcDbEntity
  8
THRU-CUT
 62
     5
100
AcDbLine
 10
32.11638647519452
 20
37.1875
 30
0.0
 11
32.11638647519452
 21
49.125
 31
0.0
  0
LINE
  5
9F
330
1F
100
AcDbEntity
  8
THRU-CUT
 62
     5
100
AcDbLine
 10
19.92888647519452
 20
37.0
 30
0.0
 11
19.92888647519452
 21
36.93104649161776
 31
0.0
  0
ARC
  5
A0
330
1F
100
AcDbEntity
  8
THRU-CUT
 62
     5
100
AcDbCircle
 10
-38.757789874587
 20
12.33903529534183
 30
0.0
 40
0.0625000000000006
210
0.0
220
0.0
230
-1.0
100
AcDbArc
 50
25.41928833890338
 51
140.8385766780279
  0
LINE
  5
A1
330
1F
100
AcDbEntity
  8
THRU-CUT
 62
     5
100
AcDbLine
 10
7.12702877623083
 20
9.864181866378717
 30
0.0
 11
6.975028190792589
 21
9.754399936962885
 31
0.0
  0
LINE
  5
A2
330
1F
100
AcDbEntity
  8
THRU-CUT
 62
     5
100
AcDbLine
 10
4.166872458467934
 20
12.27510951090983
 30
0.0
 11
5.606956531813751
 21
11.10221925439045
 31
0.0
  0
LINE
  5
A3
330
1F
100
AcDbEntity
  8
THRU-CUT
 62
     5
100
AcDbLine
 10
7.12702877623083
 20
9.864181866378717
 30
0.0
 11
9.683131747301344
 21
7.782339337239039
 31
0.0
  0
LINE
  5
A4
330
1F
100
AcDbEntity
  8
THRU-CUT
 62
     5
100
AcDbLine
 10
32.11638647519452
 20
37.1875
 30
0.0
 11
32.30388647519452
 21
37.0
 31
0.0
  0
LINE
  5
A5
330
1F
100
AcDbEntity
  8
THRU-CUT
 62
     5
100
AcDbLine
 10
19.92888647519452
 20
37.0
 30
0.0
 11
20.11638647519452
 21
37.1875
 31
0.0
  0
LINE
  5
A6
330
1F
100
AcDbEntity
  8
THRU-CUT
 62
     5
100
AcDbLine
 10
20.11638647519452
 20
17.59374999999999
 30
0.0
 11
20.11638647519452
 21
15.90625000000001
 31
0.0
  0
ARC
  5
A7
330
1F
100
AcDbEntity
  8
THRU-CUT
 62
     5
100
AcDbCircle
 10
-19.96013647519452
 20
17.59375
 30
0.0
 40
0.15625
210
0.0
220
0.0
230
-1.0
100
AcDbArc
 50
0.0
 51
180.0
  0
ARC
  5
A8
330
1F
100
AcDbEntity
  8
THRU-CUT
 62
     5
100
AcDbCircle
 10
22.27263647519452
 20
12.53125
 30
0.0
 40
0.1562499999999982
100
AcDbArc
 50
89.9999999999987
 51
270.0000000000013
  0
ARC
  5
A9
330
1F
100
AcDbEntity
  8
THRU-CUT
 62
     5
100
AcDbCircle
 10
32.27263647519452
 20
17.59375
 30
0.0
 40
0.15625
100
AcDbArc
 50
0.0
 51
180.0
  0
ARC
  5
AA
330
1F
100
AcDbEntity
  8
THRU-CUT
 62
     5
100
AcDbCircle
 10
-32.27263647519452
 20
15.90625
 30
0.0
 40
0.15625
210
0.0
220
0.0
230
-1.0
100
AcDbArc
 50
180.0
 51
0.0
  0
LINE
  5
AB
330
1F
100
AcDbEntity
  8
THRU-CUT
 62
     5
100
AcDbLine
 10
30.11638647519452
 20
49.125
 30
0.0
 11
30.06614600161368
 21
49.3125
 31
0.0
  0
LINE
  5
AC
330
1F
100
AcDbEntity
  8
THRU-CUT
 62
     5
100
AcDbLine
 10
30.06614600161368
 20
49.3125
 30
0.0
 11
28.16662694877536
 21
49.3125
 31
0.0
  0
LINE
  5
AD
330
1F
100
AcDbEntity
  8
THRU-CUT
 62
     5
100
AcDbLine
 10
22.27263647519452
 20
12.6875
 30
0.0
 11
23.96013647519452
 21
12.6875
 31
0.0
  0
ARC
  5
AE
330
1F
100
AcDbEntity
  8
THRU-CUT
 62
     5
100
AcDbCircle
 10
-23.99138647519452
 20
24.875
 30
0.0
 40
0.125
210
0.0
220
0.0
230
-1.0
100
AcDbArc
 50
90.0
 51
270.0
  0
ARC
  5
AF
330
1F
100
AcDbEntity
  8
THRU-CUT
 62
     5
100
AcDbCircle
 10
32.27263647519452
 20
19.78125
 30
0.0
 40
0.15625
100
AcDbArc
 50
180.0
 51
0.0
  0
LINE
  5
B0
330
1F
100
AcDbEntity
  8
THRU-CUT
 62
     5
100
AcDbLine
 10
7.803886475194521
 20
25.0
 30
0.0
 11
7.866386475194521
 21
25.0625
 31
0.0
  0
LINE
  5
B1
330
1F
100
AcDbEntity
  8
THRU-CUT
 62
     5
100
AcDbLine
 10
30.11638647519452
 20
49.125
 30
0.0
 11
32.11638647519452
 21
49.125
 31
0.0
  0
ARC
  5
B2
330
1F
100
AcDbEntity
  8
THRU-CUT
 62
     5
100
AcDbCircle
 10
19.96013647519452
 20
19.78125000000001
 30
0.0
 40
0.15625
100
AcDbArc
 50
180.0
 51
0.0
  0
LINE
  5
B3
330
1F
100
AcDbEntity
  8
THRU-CUT
 62
     5
100
AcDbLine
 10
19.74138647519452
 20
12.375
 30
0.0
 11
19.80388647519452
 21
12.5
 31
0.0
  0
LINE
  5
B4
330
1F
100
AcDbEntity
  8
THRU-CUT
 62
     5
100
AcDbLine
 10
42.54964120307024
 20
7.782339337223529
 30
0.0
 11
38.80625049034085
 21
12.37850450765672
 31
0.0
  0
LINE
  5
B5
330
1F
100
AcDbEntity
  8
THRU-CUT
 62
     5
100
AcDbLine
 10
52.14484312229541
 20
15.59724337561694
 30
0.0
 11
49.60803915870028
 21
13.5311191078213
 31
0.0
  0
LINE
  5
B6
330
1F
100
AcDbEntity
  8
CREASE
 62
     3
100
AcDbLine
 10
32.42888647519452
 20
19.78125
 30
0.0
 11
32.42888647519452
 21
17.59375
 31
0.0
  0
LINE
  5
B7
330
1F
100
AcDbEntity
  8
THRU-CUT
 62
     5
100
AcDbLine
 10
19.80388647519452
 20
17.59374999999999
 30
0.0
 11
19.80388647519452
 21
15.90625000000001
 31
0.0
  0
LINE
  5
B8
330
1F
100
AcDbEntity
  8
THRU-CUT
 62
     5
100
AcDbLine
 10
19.80388647519452
 20
25.0625
 30
0.0
 11
7.428886475194521
 21
25.0625
 31
0.0
  0
ARC
  5
B9
330
1F
100
AcDbEntity
  8
THRU-CUT
 62
     5
100
AcDbCircle
 10
-23.96013647519452
 20
12.53125
 30
0.0
 40
0.1562499999999982
210
0.0
220
0.0
230
-1.0
100
AcDbArc
 50
90.0
 51
270.0
  0
LINE
  5
BA
330
1F
100
AcDbEntity
  8
THRU-CUT
 62
     5
100
AcDbLine
 10
32.11638647519452
 20
21.46875000000001
 30
0.0
 11
32.11638647519452
 21
19.78125
 31
0.0
  0
ARC
  5
BB
330
1F
100
AcDbEntity
  8
THRU-CUT
 62
     5
100
AcDbCircle
 10
28.27263647519452
 20
12.53125
 30
0.0
 40
0.1562499999999982
100
AcDbArc
 50
89.9999999999987
 51
270.0000000000013
  0
ARC
  5
BC
330
1F
100
AcDbEntity
  8
THRU-CUT
 62
     5
100
AcDbCircle
 10
-29.96013647519452
 20
12.53125
 30
0.0
 40
0.1562499999999982
210
0.0
220
0.0
230
-1.0
100
AcDbArc
 50
89.9999999999987
 51
270.0000000000013
  0
ARC
  5
BD
330
1F
100
AcDbEntity
  8
THRU-CUT
 62
     5
100
AcDbCircle
 10
-29.99138647519451
 20
24.875
 30
0.0
 40
0.125
210
0.0
220
0.0
230
-1.0
100
AcDbArc
 50
90.0
 51
270.0
  0
ARC
  5
BE
330
1F
100
AcDbEntity
  8
THRU-CUT
 62
     5
100
AcDbCircle
 10
28.24138647519452
 20
24.875
 30
0.0
 40
0.125
100
AcDbArc
 50
90.0
 51
270.0
  0
LINE
  5
BF
330
1F
100
AcDbEntity
  8
THRU-CUT
 62
     5
100
AcDbLine
 10
7.428886475194521
 20
25.0625
 30
0.0
 11
7.428886475194521
 21
31.10580377317115
 31
0.0
  0
LINE
  5
C0
330
1F
100
AcDbEntity
  8
CREASE
 62
     3
100
AcDbLine
 10
19.80388647519452
 20
12.5
 30
0.0
 11
13.74448053460046
 21
12.5
 31
0.0
  0
LINE
  5
C1
330
1F
100
AcDbEntity
  8
CREASE
 62
     3
100
AcDbLine
 10
32.42888647519452
 20
25.0625
 30
0.0
 11
32.42888647519452
 21
21.46875000000001
 31
0.0
  0
LINE
  5
C2
330
1F
100
AcDbEntity
  8
THRU-CUT
 62
     5
100
AcDbLine
 10
13.77705902441824
 20
12.4314494276751
 30
0.0
 11
13.86638647519452
 21
12.375
 31
0.0
  0
LINE
  5
C3
330
1F
100
AcDbEntity
  8
THRU-CUT
 62
     5
100
AcDbLine
 10
13.74448053460046
 20
12.5
 30
0.0
 11
13.77705902441824
 21
12.4314494276751
 31
0.0
  0
LINE
  5
C4
330
1F
100
AcDbEntity
  8
CREASE
 62
     3
100
AcDbLine
 10
23.96013647519452
 20
12.375
 30
0.0
 11
28.27263647519452
 21
12.375
 31
0.0
  0
LINE
  5
C5
330
1F
100
AcDbEntity
  8
CREASE
 62
     3
100
AcDbLine
 10
29.96013647519452
 20
12.375
 30
0.0
 11
32.49138647519452
 21
12.375
 31
0.0
  0
LINE
  5
C6
330
1F
100
AcDbEntity
  8
THRU-CUT
 62
     5
100
AcDbLine
 10
38.45571392597002
 20
12.43144942767345
 30
0.0
 11
38.68151163667099
 21
12.32413962456953
 31
0.0
  0
LINE
  5
C7
330
1F
100
AcDbEntity
  8
THRU-CUT
 62
     5
100
AcDbLine
 10
45.1057441741601
 20
9.864181866383861
 30
0.0
 11
42.54964120307024
 21
7.782339337223529
 31
0.0
  0
LINE
  5
C8
330
1F
100
AcDbEntity
  8
THRU-CUT
 62
     5
100
AcDbLine
 10
32.11638647519452
 20
17.59375
 30
0.0
 11
32.11638647519452
 21
15.90625
 31
0.0
  0
LINE
  5
C9
330
1F
100
AcDbEntity
  8
THRU-CUT
 62
     5
100
AcDbLine
 10
13.77705902441824
 20
12.4314494276751
 30
0.0
 11
13.55126131371785
 21
12.32413962456995
 31
0.0
  0
ARC
  5
CA
330
1F
100
AcDbEntity
  8
THRU-CUT
 62
     5
100
AcDbCircle
 10
-13.47498307580182
 20
12.3390352953423
 30
0.0
 40
0.062499999999996
210
0.0
220
0.0
230
-1.0
100
AcDbArc
 50
39.16142332219144
 51
154.5807116610995
  0
LINE
  5
CB
330
1F
100
AcDbEntity
  8
THRU-CUT
 62
     5
100
AcDbLine
 10
32.49138647519452
 20
12.375
 30
0.0
 11
32.42888647519452
 21
12.5
 31
0.0
  0
LINE
  5
CC
330
1F
100
AcDbEntity
  8
THRU-CUT
 62
     5
100
AcDbLine
 10
2.547988388015638
 20
13.36004487534148
 30
0.0
 11
4.014871873029204
 21
12.16532758149365
 31
0.0
  0
LINE
  5
CD
330
1F
100
AcDbEntity
  8
THRU-CUT
 62
     5
100
AcDbLine
 10
13.53143250347692
 20
12.36586274611858
 30
0.0
 11
13.55126131371785
 21
12.32413962456995
 31
0.0
  0
LINE
  5
CE
330
1F
100
AcDbEntity
  8
THRU-CUT
 62
     5
100
AcDbLine
 10
44.80388647519452
 20
31.10580377317115
 30
0.0
 11
32.30388647519452
 21
36.93104649161776
 31
0.0
  0
LINE
  5
CF
330
1F
100
AcDbEntity
  8
THRU-CUT
 62
     5
100
AcDbLine
 10
20.11638647519452
 20
21.46875
 30
0.0
 11
20.11638647519452
 21
19.78125000000001
 31
0.0
  0
LINE
  5
D0
330
1F
100
AcDbEntity
  8
THRU-CUT
 62
     5
100
AcDbLine
 10
19.80388647519452
 20
21.46875
 30
0.0
 11
19.80388647519452
 21
19.78125000000001
 31
0.0
  0
LINE
  5
D1
330
1F
100
AcDbEntity
  8
THRU-CUT
 62
     5
100
AcDbLine
 10
19.80388647519452
 20
25.0625
 30
0.0
 11
19.92888647519452
 21
25.0
 31
0.0
  0
LINE
  5
D2
330
1F
100
AcDbEntity
  8
THRU-CUT
 62
     5
100
AcDbLine
 10
7.428886475194521
 20
31.10580377317115
 30
0.0
 11
19.92888647519452
 21
36.93104649161776
 31
0.0
  0
LINE
  5
D3
330
1F
100
AcDbEntity
  8
THRU-CUT
 62
     5
100
AcDbLine
 10
28.27263647519452
 20
12.375
 30
0.0
 11
29.96013647519452
 21
12.375
 31
0.0
  0
LINE
  5
D4
330
1F
100
AcDbEntity
  8
THRU-CUT
 62
     5
100
AcDbLine
 10
7.60779173479113
 20
24.83019019689493
 30
0.0
 11
7.803886475194521
 21
25.0
 31
0.0
  0
ARC
  5
D5
330
1F
100
AcDbEntity
  8
THRU-CUT
 62
     5
100
AcDbCircle
 10
-32.49138647519432
 20
6.000000000000023
 30
0.0
 40
0.374999999999801
210
0.0
220
0.0
230
-1.0
100
AcDbArc
 50
0.0
 51
19.47122063449772
  0
ARC
  5
D6
330
1F
100
AcDbEntity
  8
THRU-CUT
 62
     5
100
AcDbCircle
 10
-32.49138647519452
 20
6.000000000000003
 30
0.0
 40
0.3749999999999973
210
0.0
220
0.0
230
-1.0
100
AcDbArc
 50
90.0
 51
180.0
  0
LINE
  5
D7
330
1F
100
AcDbEntity
  8
THRU-CUT
 62
     5
100
AcDbLine
 10
28.16662694877536
 20
49.3125
 30
0.0
 11
28.11638647519452
 21
49.125
 31
0.0
  0
LINE
  5
D8
330
1F
100
AcDbEntity
  8
THRU-CUT
 62
     5
100
AcDbLine
 10
28.24138647519452
 20
25.0
 30
0.0
 11
29.99138647519451
 21
25.0
 31
0.0
  0
ARC
  5
D9
330
1F
100
AcDbEntity
  8
THRU-CUT
 62
     5
100
AcDbCircle
 10
-32.49138647519453
 20
5.999999999999987
 30
0.0
 40
0.3750000000000138
210
0.0
220
0.0
230
-1.0
100
AcDbArc
 50
19.4712206344921
 51
89.99999999999784
  0
LINE
  5
DA
330
1F
100
AcDbEntity
  8
THRU-CUT
 62
     5
100
AcDbLine
 10
9.683131747301344
 20
7.782339337239039
 30
0.0
 11
13.42652246004812
 21
12.37850450765737
 31
0.0
  0
LINE
  5
DB
330
1F
100
AcDbEntity
  8
THRU-CUT
 62
     5
100
AcDbLine
 10
22.24138647519452
 20
24.75
 30
0.0
 11
23.99138647519452
 21
24.75
 31
0.0
  0
LINE
  5
DC
330
1F
100
AcDbEntity
  8
THRU-CUT
 62
     5
100
AcDbLine
 10
32.42888647519452
 20
25.0625
 30
0.0
 11
32.30388647519452
 21
25.0
 31
0.0
  0
LINE
  5
DD
330
1F
100
AcDbEntity
  8
THRU-CUT
 62
     5
100
AcDbLine
 10
44.80388647519452
 20
25.0625
 30
0.0
 11
32.42888647519452
 21
25.0625
 31
0.0
  0
LINE
  5
DE
330
1F
100
AcDbEntity
  8
CREASE
 62
     3
100
AcDbLine
 10
32.42888647519452
 20
15.90625
 30
0.0
 11
32.42888647519452
 21
12.5
 31
0.0
  0
LINE
  5
DF
330
1F
100
AcDbEntity
  8
CREASE
 62
     3
100
AcDbLine
 10
38.68151163667099
 20
12.32413962456953
 30
0.0
 11
44.62498121560866
 21
24.83019019691753
 31
0.0
  0
LINE
  5
E0
330
1F
100
AcDbEntity
  8
THRU-CUT
 62
     5
100
AcDbLine
 10
22.27263647519452
 20
12.375
 30
0.0
 11
23.96013647519452
 21
12.375
 31
0.0
  0
LINE
  5
E1
330
1F
100
AcDbEntity
  8
THRU-CUT
 62
     5
100
AcDbLine
 10
22.24138647519452
 20
25.0
 30
0.0
 11
23.99138647519452
 21
25.0
 31
0.0
  0
LINE
  5
E2
330
1F
100
AcDbEntity
  8
THRU-CUT
 62
     5
100
AcDbLine
 10
28.24138647519452
 20
24.75
 30
0.0
 11
29.99138647519451
 21
24.75
 31
0.0
  0
LINE
  5
E3
330
1F
100
AcDbEntity
  8
THRU-CUT
 62
     5
100
AcDbLine
 10
24.11638647519452
 20
49.125
 30
0.0
 11
28.11638647519452
 21
49.125
 31
0.0
  0
LINE
  5
E4
330
1F
100
AcDbEntity
  8
THRU-CUT
 62
     5
100
AcDbLine
 10
20.11638647519452
 20
49.125
 30
0.0
 11
22.11638647519452
 21
49.125
 31
0.0
  0
LINE
  5
E5
330
1F
100
AcDbEntity
  8
THRU-CUT
 62
     5
100
AcDbLine
 10
24.06614600161369
 20
49.3125
 30
0.0
 11
24.11638647519452
 21
49.125
 31
0.0
  0
LINE
  5
E6
330
1F
100
AcDbEntity
  8
THRU-CUT
 62
     5
100
AcDbLine
 10
22.16662694877536
 20
49.3125
 30
0.0
 11
24.06614600161369
 21
49.3125
 31
0.0
  0
LINE
  5
E7
330
1F
100
AcDbEntity
  8
THRU-CUT
 62
     5
100
AcDbLine
 10
22.11638647519452
 20
49.125
 30
0.0
 11
22.16662694877536
 21
49.3125
 31
0.0
  0
LINE
  5
E8
330
1F
100
AcDbEntity
  8
CREASE
 62
     3
100
AcDbLine
 10
20.11638647519452
 20
37.1875
 30
0.0
 11
32.11638647519452
 21
37.1875
 31
0.0
  0
LINE
  5
E9
330
1F
100
AcDbEntity
  8
CREASE
 62
     3
100
AcDbLine
 10
19.92888647519452
 20
36.93104649161776
 30
0.0
 11
19.92888647519452
 21
25.0
 31
0.0
  0
LINE
  5
EA
330
1F
100
AcDbEntity
  8
CREASE
 62
     3
100
AcDbLine
 10
19.92888647519452
 20
37.0
 30
0.0
 11
32.30388647519452
 21
37.0
 31
0.0
  0
LINE
  5
EB
330
1F
100
AcDbEntity
  8
CREASE
 62
     3
100
AcDbLine
 10
19.74138647519452
 20
6.375
 30
0.0
 11
32.49138647519452
 21
6.375
 31
0.0
  0
LINE
  5
EC
330
1F
100
AcDbEntity
  8
CREASE
 62
     3
100
AcDbLine
 10
32.30388647519452
 20
36.93104649161776
 30
0.0
 11
32.30388647519452
 21
25.0
 31
0.0
  0
LINE
  5
ED
330
1F
100
AcDbEntity
  8
CREASE
 62
     3
100
AcDbLine
 10
19.80388647519452
 20
19.78125000000001
 30
0.0
 11
19.80388647519452
 21
17.59374999999999
 31
0.0
  0
LINE
  5
EE
330
1F
100
AcDbEntity
  8
CREASE
 62
     3
100
AcDbLine
 10
19.80388647519452
 20
15.90625000000001
 30
0.0
 11
19.80388647519452
 21
12.5
 31
0.0
  0
LINE
  5
EF
330
1F
100
AcDbEntity
  8
CREASE
 62
     3
100
AcDbLine
 10
19.74138647519452
 20
12.375
 30
0.0
 11
22.27263647519452
 21
12.375
 31
0.0
  0
LINE
  5
F0
330
1F
100
AcDbEntity
  8
CREASE
 62
     3
100
AcDbLine
 10
19.80388647519452
 20
25.0625
 30
0.0
 11
19.80388647519452
 21
21.46875
 31
0.0
  0
LINE
  5
F1
330
1F
100
AcDbEntity
  8
CREASE
 62
     3
100
AcDbLine
 10
13.74448053460046
 20
12.5
 30
0.0
 11
7.803886475194521
 21
25.0
 31
0.0
  0
LINE
  5
F2
330
1F
100
AcDbEntity
  8
CREASE
 62
     3
100
AcDbLine
 10
29.99138647519451
 20
25.0
 30
0.0
 11
32.30388647519452
 21
25.0
 31
0.0
  0
LINE
  5
F3
330
1F
100
AcDbEntity
  8
CREASE
 62
     3
100
AcDbLine
 10
23.99138647519452
 20
25.0
 30
0.0
 11
28.24138647519452
 21
25.0
 31
0.0
  0
LINE
  5
F4
330
1F
100
AcDbEntity
  8
CREASE
 62
     3
100
AcDbLine
 10
13.55126131371785
 20
12.32413962456995
 30
0.0
 11
7.60779173479113
 21
24.83019019689493
 31
0.0
  0
LINE
  5
F5
330
1F
100
AcDbEntity
  8
CREASE
 62
     3
100
AcDbLine
 10
19.92888647519452
 20
25.0
 30
0.0
 11
22.24138647519452
 21
25.0
 31
0.0
  0
LINE
  5
F6
330
1F
100
AcDbEntity
  8
CREASE
 62
     3
100
AcDbLine
 10
32.42888647519452
 20
12.5
 30
0.0
 11
38.48829241578858
 21
12.5
 31
0.0
  0
LINE
  5
F7
330
1F
100
AcDbEntity
  8
CREASE
 62
     3
100
AcDbLine
 10
38.48829241578858
 20
12.5
 30
0.0
 11
44.42888647519452
 21
25.0
 31
0.0
  0
LINE
  5
F8
330
1F
100
AcDbEntity
  8
THRU-CUT
 62
     5
100
AcDbLine
 10
19.74138647519452
 20
12.375
 30
0.0
 11
19.74138647519452
 21
6.375
 31
0.0
  0
LINE
  5
F9
330
1F
100
AcDbEntity
  8
THRU-CUT
 62
     5
100
AcDbLine
 10
38.45571392597002
 20
12.43144942767345
 30
0.0
 11
38.36638647519452
 21
12.375
 31
0.0
  0
LINE
  5
FA
330
1F
100
AcDbEntity
  8
THRU-CUT
 62
     5
100
AcDbLine
 10
38.48829241578858
 20
12.5
 30
0.0
 11
38.45571392597002
 21
12.43144942767345
 31
0.0
  0
LINE
  5
FB
330
1F
100
AcDbEntity
  8
THRU-CUT
 62
     5
100
AcDbLine
 10
32.30388647519452
 20
37.0
 30
0.0
 11
32.30388647519452
 21
36.93104649161776
 31
0.0
  0
ARC
  5
FC
330
1F
100
AcDbEntity
  8
THRU-CUT
 62
     5
100
AcDbCircle
 10
-19.74138647519452
 20
5.999999999999998
 30
0.0
 40
0.3750000000000018
210
0.0
220
0.0
230
-1.0
100
AcDbArc
 50
90.00000000000054
 51
160.5287793655092
  0
ARC
  5
FD
330
1F
100
AcDbEntity
  8
THRU-CUT
 62
     5
100
AcDbCircle
 10
-19.74138647519452
 20
5.999999999999996
 30
0.0
 40
0.3750000000000036
210
0.0
220
0.0
230
-1.0
100
AcDbArc
 50
0.0
 51
89.99999999999946
  0
ARC
  5
FE
330
1F
100
AcDbEntity
  8
THRU-CUT
 62
     5
100
AcDbCircle
 10
-19.7413864751946
 20
6.000000000000011
 30
0.0
 40
0.3749999999999254
210
0.0
220
0.0
230
-1.0
100
AcDbArc
 50
160.528779365507
 51
180.0
  0
LINE
  5
FF
330
1F
100
AcDbEntity
  8
CREASE
 62
     3
100
AcDbLine
 10
20.09493986578779
 20
6.125
 30
0.0
 11
32.13783308460125
 21
6.125
 31
0.0
  0
LINE
  5
100
330
1F
100
AcDbEntity
  8
THRU-CUT
 62
     5
100
AcDbLine
 10
32.49138647519452
 20
12.375
 30
0.0
 11
32.49138647519452
 21
6.375
 31
0.0
  0
ENDSEC
  0
SECTION
  2
OBJECTS
  0
DICTIONARY
  5
C
330
0
100
AcDbDictionary
  3
ACAD_GROUP
350
D
  3
ACAD_LAYOUT
350
1A
  3
ACAD_MLEADERSTYLE
350
122
  3
ACAD_MLINESTYLE
350
17
  3
ACAD_PLOTSETTINGS
350
19
  3
ACAD_TABLESTYLE
350
121
  3
ACAD_VISUALSTYLE
350
2A
  3
ACDBHEADERROUNDTRIPXREC
350
101
  0
DICTIONARY
  5
D
102
{ACAD_REACTORS
330
C
102
}
330
C
100
AcDbDictionary
  0
DICTIONARY
  5
1A
102
{ACAD_REACTORS
330
C
102
}
330
C
100
AcDbDictionary
  0
DICTIONARY
  5
122
102
{ACAD_REACTORS
330
C
102
}
330
C
100
AcDbDictionary
  0
DICTIONARY
  5
17
102
{ACAD_REACTORS
330
C
102
}
330
C
100
AcDbDictionary
  3
STANDARD
350
18
  0
DICTIONARY
  5
19
102
{ACAD_REACTORS
330
C
102
}
330
C
100
AcDbDictionary
  0
DICTIONARY
  5
121
102
{ACAD_REACTORS
330
C
102
}
330
C
100
AcDbDictionary
  0
DICTIONARY
  5
2A
102
{ACAD_REACTORS
330
C
102
}
330
C
100
AcDbDictionary
  3
2DWIREFRAME
350
2F
  3
3D_HIDDEN
350
31
  3
3DWIREFRAME
350
30
  3
BASIC
350
32
  3
BRIGHTEN
350
36
  3
COLORCHANGE
350
3A
  3
CONCEPTUAL
350
34
  3
DIM
350
35
  3
FACEPATTERN
350
39
  3
FLAT
350
2B
  3
FLATWITHEDGES
350
2C
  3
GOURAUD
350
2D
  3
GOURAUDWITHEDGES
350
2E
  3
LINEPATTERN
350
38
  3
REALISTIC
350
33
  3
THICKEN
350
37
  0
DICTIONARY
  5
101
102
{ACAD_REACTORS
330
C
102
}
330
C
100
AcDbDictionary
  3
CEPSNTYPE
350
10A
  3
DIMSTYLEDATA
350
120
  3
FINGERPRINTGUID
350
10B
  3
HYPERLINKBASE
350
104
  3
INSUNITS
350
109
  3
LAYOUTDICT
350
106
  3
LWETCUNION
350
108
  3
PLOTSETDICT
350
107
  3
PSVPSCALE
350
10D
  3
PUCSBASE
350
110
  3
PUCSORGBACK
350
116
  3
PUCSORGBOTTOM
350
112
  3
PUCSORGFRONT
350
115
  3
PUCSORGLEFT
350
113
  3
PUCSORGRIGHT
350
114
  3
PUCSORGTOP
350
111
  3
PUCSORTHOREF
350
10E
  3
PUCSORTHOVIEW
350
10F
  3
STYLESHEET
350
105
  3
TSTACKALIGN
350
102
  3
TSTACKSIZE
350
103
  3
UCSBASE
350
119
  3
UCSORGBACK
350
11F
  3
UCSORGBOTTOM
350
11B
  3
UCSORGFRONT
350
11E
  3
UCSORGLEFT
350
11C
  3
UCSORGRIGHT
350
11D
  3
UCSORGTOP
350
11A
  3
UCSORTHOREF
350
117
  3
UCSORTHOVIEW
350
118
  3
VERSIONGUID
350
10C
  0
MLINESTYLE
  5
18
102
{ACAD_REACTORS
330
17
102
}
330
17
100
AcDbMlineStyle
  2
Standard
 70
     0
  3

 62
   256
 51
90.0
 52
90.0
 71
     2
 49
0.5
 62
   256
  6
BYLAYER
 49
-0.5
 62
   256
  6
BYLAYER
  0
VISUALSTYLE
  5
2F
102
{ACAD_REACTORS
330
2A
102
}
330
2A
100
AcDbVisualStyle
  2
2dWireframe
 70
     4
 71
     0
 72
     2
 73
     0
 90
        0
 40
-0.6
 41
-30.0
 62
     5
 63
     7
 74
     1
 91
        4
 64
     7
 65
   257
 75
     1
175
     1
 42
1.0
 92
        0
 66
   257
 43
1.0
 76
     1
 77
     6
 78
     2
 67
     7
 79
     5
170
     0
171
     0
290
     0
174
     0
 93
        1
 44
0.0
173
     0
291
     0
 45
0.0
1001
ACAD
1000
AcDbSavedByObjectVersion
1070
     0
  0
VISUALSTYLE
  5
31
102
{ACAD_REACTORS
330
2A
102
}
330
2A
100
AcDbVisualStyle
  2
3D Hidden
 70
     6
 71
     1
 72
     2
 73
     2
 90
        0
 40
-0.6
 41
-30.0
 62
     5
 63
     7
 74
     2
 91
        2
 64
     7
 65
   257
 75
     2
175
     1
 42
40.0
 92
        0
 66
   257
 43
1.0
 76
     1
 77
     6
 78
     2
 67
     7
 79
     3
170
     0
171
     0
290
     0
174
     0
 93
        1
 44
0.0
173
     0
291
     0
 45
0.0
1001
ACAD
1000
AcDbSavedByObjectVersion
1070
     0
  0
VISUALSTYLE
  5
30
102
{ACAD_REACTORS
330
2A
102
}
330
2A
100
AcDbVisualStyle
  2
3dWireframe
 70
     5
 71
     0
 72
     2
 73
     0
 90
        0
 40
-0.6
 41
-30.0
 62
     5
 63
     7
 74
     1
 91
        4
 64
     7
 65
   257
 75
     1
175
     1
 42
1.0
 92
        0
 66
   257
 43
1.0
 76
     1
 77
     6
 78
     2
 67
     7
 79
     5
170
     0
171
     0
290
     0
174
     0
 93
        1
 44
0.0
173
     0
291
     0
 45
0.0
1001
ACAD
1000
AcDbSavedByObjectVersion
1070
     0
  0
VISUALSTYLE
  5
32
102
{ACAD_REACTORS
330
2A
102
}
330
2A
100
AcDbVisualStyle
  2
Basic
 70
     7
 71
     1
 72
     0
 73
     1
 90
        0
 40
-0.6
 41
-30.0
 62
     5
 63
     7
 74
     0
 91
        4
 64
     7
 65
   257
 75
     1
175
     1
 42
1.0
 92
        8
 66
     7
 43
1.0
 76
     1
 77
     6
 78
     2
 67
     7
 79
     5
170
     0
171
     0
290
     0
174
     0
 93
        1
 44
0.0
173
     0
291
     1
 45
0.0
1001
ACAD
1000
AcDbSavedByObjectVersion
1070
     0
  0
VISUALSTYLE
  5
36
102
{ACAD_REACTORS
330
2A
102
}
330
2A
100
AcDbVisualStyle
  2
Brighten
 70
    12
 71
     2
 72
     2
 73
     0
 90
        0
 40
-0.6
 41
-30.0
 62
     5
 63
     7
 74
     1
 91
        4
 64
     7
 65
   257
 75
     1
175
     1
 42
1.0
 92
        8
 66
     7
 43
1.0
 76
     1
 77
     6
 78
     2
 67
     7
 79
     5
170
     0
171
     0
290
     0
174
     0
 93
        1
 44
50.0
173
     0
291
     1
 45
0.0
1001
ACAD
1000
AcDbSavedByObjectVersion
1070
     0
  0
VISUALSTYLE
  5
3A
102
{ACAD_REACTORS
330
2A
102
}
330
2A
100
AcDbVisualStyle
  2
ColorChange
 70
    16
 71
     2
 72
     2
 73
     3
 90
        0
 40
-0.6
 41
-30.0
 62
     5
 63
     8
 74
     1
 91
        4
 64
     7
 65
   257
 75
     1
175
     1
 42
1.0
 92
        8
 66
     8
 43
1.0
 76
     1
 77
     6
 78
     2
 67
     7
 79
     5
170
     0
171
     0
290
     0
174
     0
 93
        1
 44
0.0
173
     0
291
     1
 45
0.0
1001
ACAD
1000
AcDbSavedByObjectVersion
1070
     0
  0
VISUALSTYLE
  5
34
102
{ACAD_REACTORS
330
2A
102
}
330
2A
100
AcDbVisualStyle
  2
Conceptual
 70
     9
 71
     3
 72
     2
 73
     0
 90
        0
 40
-0.6
 41
-30.0
 62
     5
 63
     7
 74
     2
 91
        2
 64
     7
 65
   257
 75
     1
175
     1
 42
40.0
 92
        8
 66
     7
 43
1.0
 76
     1
 77
     6
 78
     2
 67
     7
 79
     3
170
     0
171
     0
290
     0
174
     0
 93
        1
 44
0.0
173
     0
291
     0
 45
0.0
1001
ACAD
1000
AcDbSavedByObjectVersion
1070
     0
  0
VISUALSTYLE
  5
35
102
{ACAD_REACTORS
330
2A
102
}
330
2A
100
AcDbVisualStyle
  2
Dim
 70
    11
 71
     2
 72
     2
 73
     0
 90
        0
 40
-0.6
 41
-30.0
 62
     5
 63
     7
 74
     1
 91
        4
 64
     7
 65
   257
 75
     1
175
     1
 42
1.0
 92
        8
 66
     7
 43
1.0
 76
     1
 77
     6
 78
     2
 67
     7
 79
     5
170
     0
171
     0
290
     0
174
     0
 93
        1
 44
-50.0
173
     0
291
     1
 45
0.0
1001
ACAD
1000
AcDbSavedByObjectVersion
1070
     0
  0
VISUALSTYLE
  5
39
102
{ACAD_REACTORS
330
2A
102
}
330
2A
100
AcDbVisualStyle
  2
Facepattern
 70
    15
 71
     2
 72
     2
 73
     0
 90
        0
 40
-0.6
 41
-30.0
 62
     5
 63
     7
 74
     1
 91
        4
 64
     7
 65
   257
 75
     1
175
     1
 42
1.0
 92
        8
 66
     7
 43
1.0
 76
     1
 77
     6
 78
     2
 67
     7
 79
     5
170
     0
171
     0
290
     0
174
     0
 93
        1
 44
0.0
173
     0
291
     1
 45
0.0
1001
ACAD
1000
AcDbSavedByObjectVersion
1070
     0
  0
VISUALSTYLE
  5
2B
102
{ACAD_REACTORS
330
2A
102
}
330
2A
100
AcDbVisualStyle
  2
Flat
 70
     0
 71
     2
 72
     1
 73
     1
 90
        2
 40
-0.6
 41
30.0
 62
     5
 63
     7
 74
     0
 91
        4
 64
     7
 65
   257
 75
     1
175
     1
 42
1.0
 92
        8
 66
     7
 43
1.0
 76
     1
 77
     6
 78
     2
 67
     7
 79
     5
170
     0
171
     0
290
     0
174
     0
 93
       13
 44
0.0
173
     0
291
     1
 45
0.0
1001
ACAD
1000
AcDbSavedByObjectVersion
1070
     0
  0
VISUALSTYLE
  5
2C
102
{ACAD_REACTORS
330
2A
102
}
330
2A
100
AcDbVisualStyle
  2
FlatWithEdges
 70
     1
 71
     2
 72
     1
 73
     1
 90
        2
 40
-0.6
 41
30.0
 62
     5
 63
     7
 74
     1
 91
        4
 64
     7
 65
   257
 75
     1
175
     1
 42
1.0
 92
        0
 66
   257
 43
1.0
 76
     1
 77
     6
 78
     2
 67
     7
 79
     5
170
     0
171
     0
290
     0
174
     0
 93
       13
 44
0.0
173
     0
291
     1
 45
0.0
1001
ACAD
1000
AcDbSavedByObjectVersion
1070
     0
  0
VISUALSTYLE
  5
2D
102
{ACAD_REACTORS
330
2A
102
}
330
2A
100
AcDbVisualStyle
  2
Gouraud
 70
     2
 71
     2
 72
     2
 73
     1
 90
        2
 40
-0.6
 41
30.0
 62
     5
 63
     7
 74
     0
 91
        4
 64
     7
 65
   257
 75
     1
175
     1
 42
1.0
 92
        0
 66
     7
 43
1.0
 76
     1
 77
     6
 78
     2
 67
     7
 79
     5
170
     0
171
     0
290
     0
174
     0
 93
       13
 44
0.0
173
     0
291
     1
 45
0.0
1001
ACAD
1000
AcDbSavedByObjectVersion
1070
     0
  0
VISUALSTYLE
  5
2E
102
{ACAD_REACTORS
330
2A
102
}
330
2A
100
AcDbVisualStyle
  2
GouraudWithEdges
 70
     3
 71
     2
 72
     2
 73
     1
 90
        2
 40
-0.6
 41
30.0
 62
     5
 63
     7
 74
     1
 91
        4
 64
     7
 65
   257
 75
     1
175
     1
 42
1.0
 92
        0
 66
   257
 43
1.0
 76
     1
 77
     6
 78
     2
 67
     7
 79
     5
170
     0
171
     0
290
     0
174
     0
 93
       13
 44
0.0
173
     0
291
     1
 45
0.0
1001
ACAD
1000
AcDbSavedByObjectVersion
1070
     0
  0
VISUALSTYLE
  5
38
102
{ACAD_REACTORS
330
2A
102
}
330
2A
100
AcDbVisualStyle
  2
Linepattern
 70
    14
 71
     2
 72
     2
 73
     0
 90
        0
 40
-0.6
 41
-30.0
 62
     5
 63
     7
 74
     1
 91
        4
 64
     7
 65
   257
 75
     7
175
     7
 42
1.0
 92
        8
 66
     7
 43
1.0
 76
     1
 77
     6
 78
     2
 67
     7
 79
     5
170
     0
171
     0
290
     0
174
     0
 93
        1
 44
0.0
173
     0
291
     1
 45
0.0
1001
ACAD
1000
AcDbSavedByObjectVersion
1070
     0
  0
VISUALSTYLE
  5
33
102
{ACAD_REACTORS
330
2A
102
}
330
2A
100
AcDbVisualStyle
  2
Realistic
 70
     8
 71
     2
 72
     2
 73
     0
 90
        0
 40
-0.6
 41
-30.0
 62
     5
 63
     7
 74
     1
 91
        0
 64
     7
 65
   257
 75
     1
175
     1
 42
1.0
 92
        8
 66
     8
 43
1.0
 76
     1
 77
     6
 78
     2
 67
     7
 79
     5
170
     0
171
     0
290
     0
174
     0
 93
       13
 44
0.0
173
     0
291
     0
 45
0.0
1001
ACAD
1000
AcDbSavedByObjectVersion
1070
     0
  0
VISUALSTYLE
  5
37
102
{ACAD_REACTORS
330
2A
102
}
330
2A
100
AcDbVisualStyle
  2
Thicken
 70
    13
 71
     2
 72
     2
 73
     0
 90
        0
 40
-0.6
 41
-30.0
 62
     5
 63
     7
 74
     1
 91
        4
 64
     7
 65
   257
 75
     1
175
     1
 42
1.0
 92
       12
 66
     7
 43
1.0
 76
     1
 77
     6
 78
     2
 67
     7
 79
     5
170
     0
171
     0
290
     0
174
     0
 93
        1
 44
0.0
173
     0
291
     1
 45
0.0
1001
ACAD
1000
AcDbSavedByObjectVersion
1070
     0
  0
XRECORD
  5
10A
102
{ACAD_REACTORS
330
101
102
}
330
101
100
AcDbXrecord
 90
        0
  0
XRECORD
  5
120
102
{ACAD_REACTORS
330
101
102
}
330
101
100
AcDbXrecord
1000
DSTYLE
1002
{
1070
   340
340
11
1002
}
  0
XRECORD
  5
10B
102
{ACAD_REACTORS
330
101
102
}
330
101
100
AcDbXrecord
  1
{B3D52BE1-C523-45A2-B6C2-B75A90240AC7}
  0
XRECORD
  5
104
102
{ACAD_REACTORS
330
101
102
}
330
101
100
AcDbXrecord
  1

  0
XRECORD
  5
109
102
{ACAD_REACTORS
330
101
102
}
330
101
100
AcDbXrecord
 90
        1
  0
XRECORD
  5
106
102
{ACAD_REACTORS
330
101
102
}
330
101
100
AcDbXrecord
340
1A
  0
XRECORD
  5
108
102
{ACAD_REACTORS
330
101
102
}
330
101
100
AcDbXrecord
 90
    10781
  0
XRECORD
  5
107
102
{ACAD_REACTORS
330
101
102
}
330
101
100
AcDbXrecord
340
19
  0
XRECORD
  5
10D
102
{ACAD_REACTORS
330
101
102
}
330
101
100
AcDbXrecord
 40
0.0
  0
XRECORD
  5
110
102
{ACAD_REACTORS
330
101
102
}
330
101
100
AcDbXrecord
340
0
  0
XRECORD
  5
116
102
{ACAD_REACTORS
330
101
102
}
330
101
100
AcDbXrecord
 10
0.0
 20
0.0
 30
0.0
  0
XRECORD
  5
112
102
{ACAD_REACTORS
330
101
102
}
330
101
100
AcDbXrecord
 10
0.0
 20
0.0
 30
0.0
  0
XRECORD
  5
115
102
{ACAD_REACTORS
330
101
102
}
330
101
100
AcDbXrecord
 10
0.0
 20
0.0
 30
0.0
  0
XRECORD
  5
113
102
{ACAD_REACTORS
330
101
102
}
330
101
100
AcDbXrecord
 10
0.0
 20
0.0
 30
0.0
  0
XRECORD
  5
114
102
{ACAD_REACTORS
330
101
102
}
330
101
100
AcDbXrecord
 10
0.0
 20
0.0
 30
0.0
  0
XRECORD
  5
111
102
{ACAD_REACTORS
330
101
102
}
330
101
100
AcDbXrecord
 10
0.0
 20
0.0
 30
0.0
  0
XRECORD
  5
10E
102
{ACAD_REACTORS
330
101
102
}
330
101
100
AcDbXrecord
340
0
  0
XRECORD
  5
10F
102
{ACAD_REACTORS
330
101
102
}
330
101
100
AcDbXrecord
 70
     0
  0
XRECORD
  5
105
102
{ACAD_REACTORS
330
101
102
}
330
101
100
AcDbXrecord
  1

  0
XRECORD
  5
102
102
{ACAD_REACTORS
330
101
102
}
330
101
100
AcDbXrecord
 90
        1
  0
XRECORD
  5
103
102
{ACAD_REACTORS
330
101
102
}
330
101
100
AcDbXrecord
 90
       70
  0
XRECORD
  5
119
102
{ACAD_REACTORS
330
101
102
}
330
101
100
AcDbXrecord
340
0
  0
XRECORD
  5
11F
102
{ACAD_REACTORS
330
101
102
}
330
101
100
AcDbXrecord
 10
0.0
 20
0.0
 30
0.0
  0
XRECORD
  5
11B
102
{ACAD_REACTORS
330
101
102
}
330
101
100
AcDbXrecord
 10
0.0
 20
0.0
 30
0.0
  0
XRECORD
  5
11E
102
{ACAD_REACTORS
330
101
102
}
330
101
100
AcDbXrecord
 10
0.0
 20
0.0
 30
0.0
  0
XRECORD
  5
11C
102
{ACAD_REACTORS
330
101
102
}
330
101
100
AcDbXrecord
 10
0.0
 20
0.0
 30
0.0
  0
XRECORD
  5
11D
102
{ACAD_REACTORS
330
101
102
}
330
101
100
AcDbXrecord
 10
0.0
 20
0.0
 30
0.0
  0
XRECORD
  5
11A
102
{ACAD_REACTORS
330
101
102
}
330
101
100
AcDbXrecord
 10
0.0
 20
0.0
 30
0.0
  0
XRECORD
  5
117
102
{ACAD_REACTORS
330
101
102
}
330
101
100
AcDbXrecord
340
0
  0
XRECORD
  5
118
102
{ACAD_REACTORS
330
101
102
}
330
101
100
AcDbXrecord
 70
     0
  0
XRECORD
  5
10C
102
{ACAD_REACTORS
330
101
102
}
330
101
100
AcDbXrecord
  1
{FAEB1C32-E019-11D5-929B-00C0DF256EC4}
  0
ENDSEC
  0
EOF
