  0
SECTION
  2
HEADER
  9
$ACADVER
  1
AC1009
  9
$EXTMIN
 10
0
 20
0
  9
$EXTMAX
 10
55
 20
53.125
  0
ENDSEC
  0
SECTION
  2
TABLES
  0
TABLE
  2
LAYER
 70
 1
  0
LAYER
  2
Design
 70
64
 62
7
  6
CONTINUOUS
  0
ENDTAB
  0
ENDSEC
  0
SECTION
  2
BLOCKS
  0
ENDSEC
  0
SECTION
  2
ENTITIES
  0
LINE
  8
Design
  6
CONTINUOUS
 62
2
 10
21.8125
 20
21.1875
 11
33.1875
 21
21.1875
  0
LINE
  8
Design
  6
CONTINUOUS
 62
2
 10
33.1875
 20
21.1875
 11
33.1875
 21
31.75
  0
LINE
  8
Design
  6
CONTINUOUS
 62
1
 10
33.1875
 20
31.75
 11
32.8125
 21
31.8125
  0
LINE
  8
Design
  6
CONTINUOUS
 62
2
 10
32.8125
 20
31.8125
 11
22.1875
 21
31.8125
  0
LINE
  8
Design
  6
CONTINUOUS
 62
1
 10
22.1875
 20
31.8125
 11
21.8125
 21
31.75
  0
LINE
  8
Design
  6
CONTINUOUS
 62
2
 10
21.8125
 20
31.75
 11
21.8125
 21
21.1875
  0
LINE
  8
Design
  6
CONTINUOUS
 62
1
 10
21.8125
 20
31.75
 11
16.625
 21
31.75
  0
LINE
  8
Design
  6
CONTINUOUS
 62
1
 10
16.625
 20
31.75
 11
16.625
 21
21.25
  0
LINE
  8
Design
  6
CONTINUOUS
 62
2
 10
11.0625
 20
21.25
 11
11.0625
 21
10.5
  0
LINE
  8
Design
  6
CONTINUOUS
 62
2
 10
10.6875
 20
10.625
 11
10.6875
 21
21.125
  0
LINE
  8
Design
  6
CONTINUOUS
 62
2
 10
21.6875
 20
10.5
 11
21.6875
 21
12.75
  0
LINE
  8
Design
  6
CONTINUOUS
 62
2
 10
21.6875
 20
19
 11
21.6875
 21
21.25
  0
LINE
  8
Design
  6
CONTINUOUS
 62
1
 10
21.8125
 20
21.1875
 11
21.6875
 21
21.25
  0
LINE
  8
Design
  6
CONTINUOUS
 62
1
 10
21.6875
 20
21.25
 11
11.0625
 21
21.25
  0
LINE
  8
Design
  6
CONTINUOUS
 62
1
 10
11.0625
 20
21.25
 11
10.6875
 21
21.125
  0
LINE
  8
Design
  6
CONTINUOUS
 62
1
 10
10.6875
 20
21.125
 11
0.125
 21
21.125
  0
LINE
  8
Design
  6
CONTINUOUS
 62
1
 10
0.125
 20
21.125
 11
0.125
 21
19
  0
LINE
  8
Design
  6
CONTINUOUS
 62
1
 10
0.125
 20
12.75
 11
0.125
 21
10.625
  0
LINE
  8
Design
  6
CONTINUOUS
 62
1
 10
0.125
 20
10.625
 11
10.6875
 21
10.625
  0
LINE
  8
Design
  6
CONTINUOUS
 62
1
 10
10.6875
 20
10.625
 11
11.0625
 21
10.5
  0
LINE
  8
Design
  6
CONTINUOUS
 62
1
 10
11.0625
 20
10.5
 11
21.6875
 21
10.5
  0
LINE
  8
Design
  6
CONTINUOUS
 62
1
 10
21.6875
 20
10.5
 11
21.9375
 21
10.5625
  0
LINE
  8
Design
  6
CONTINUOUS
 62
1
 10
21.6875
 20
12.75
 11
21.6875
 21
14.8125
  0
LINE
  8
Design
  6
CONTINUOUS
 62
1
 10
21.6875
 20
14.8125
 11
22.125
 21
14.8125
  0
LINE
  8
Design
  6
CONTINUOUS
 62
1
 10
22.125
 20
14.8125
 11
22.125
 21
12.75
  0
LINE
  8
Design
  6
CONTINUOUS
 62
1
 10
22.125
 20
12.75
 11
21.6875
 21
12.75
  0
LINE
  8
Design
  6
CONTINUOUS
 62
2
 10
21.6875
 20
14.8125
 11
21.6875
 21
16.9375
  0
LINE
  8
Design
  6
CONTINUOUS
 62
1
 10
21.6875
 20
16.9375
 11
21.6875
 21
19
  0
LINE
  8
Design
  6
CONTINUOUS
 62
1
 10
21.6875
 20
19
 11
22.125
 21
19
  0
LINE
  8
Design
  6
CONTINUOUS
 62
1
 10
22.125
 20
19
 11
22.125
 21
16.9375
  0
LINE
  8
Design
  6
CONTINUOUS
 62
1
 10
22.125
 20
16.9375
 11
21.6875
 21
16.9375
  0
LINE
  8
Design
  6
CONTINUOUS
 62
1
 10
0.125
 20
12.75
 11
0
 21
12.8125
  0
LINE
  8
Design
  6
CONTINUOUS
 62
1
 10
0
 20
12.8125
 11
0
 21
14.75
  0
LINE
  8
Design
  6
CONTINUOUS
 62
1
 10
0
 20
14.75
 11
0.125
 21
14.8125
  0
LINE
  8
Design
  6
CONTINUOUS
 62
1
 10
0.125
 20
14.8125
 11
0.125
 21
16.9375
  0
LINE
  8
Design
  6
CONTINUOUS
 62
1
 10
0.125
 20
16.9375
 11
0
 21
17
  0
LINE
  8
Design
  6
CONTINUOUS
 62
1
 10
0
 20
17
 11
0
 21
18.9375
  0
LINE
  8
Design
  6
CONTINUOUS
 62
1
 10
0
 20
18.9375
 11
0.125
 21
19
  0
LINE
  8
Design
  6
CONTINUOUS
 62
1
 10
21.9375
 20
0
 11
16.625
 21
0
  0
LINE
  8
Design
  6
CONTINUOUS
 62
1
 10
16.625
 20
0
 11
16.625
 21
10.5
  0
LINE
  8
Design
  6
CONTINUOUS
 62
2
 10
33.0625
 20
10.5625
 11
21.9375
 21
10.5625
  0
LINE
  8
Design
  6
CONTINUOUS
 62
2
 10
21.9375
 20
10.5625
 11
21.9375
 21
0
  0
LINE
  8
Design
  6
CONTINUOUS
 62
1
 10
21.9375
 20
0
 11
33.0625
 21
0
  0
LINE
  8
Design
  6
CONTINUOUS
 62
2
 10
33.0625
 20
0
 11
33.0625
 21
10.5625
  0
LINE
  8
Design
  6
CONTINUOUS
 62
1
 10
33.0625
 20
0
 11
38.375
 21
0
  0
LINE
  8
Design
  6
CONTINUOUS
 62
1
 10
38.375
 20
0
 11
38.375
 21
10.5
  0
LINE
  8
Design
  6
CONTINUOUS
 62
2
 10
43.9375
 20
21.25
 11
43.9375
 21
10.5
  0
LINE
  8
Design
  6
CONTINUOUS
 62
2
 10
44.3125
 20
10.625
 11
44.3125
 21
21.125
  0
LINE
  8
Design
  6
CONTINUOUS
 62
2
 10
33.3125
 20
10.5
 11
33.3125
 21
12.75
  0
LINE
  8
Design
  6
CONTINUOUS
 62
2
 10
33.3125
 20
19
 11
33.3125
 21
21.25
  0
LINE
  8
Design
  6
CONTINUOUS
 62
1
 10
33.1875
 20
21.1875
 11
33.3125
 21
21.25
  0
LINE
  8
Design
  6
CONTINUOUS
 62
1
 10
33.3125
 20
21.25
 11
43.9375
 21
21.25
  0
LINE
  8
Design
  6
CONTINUOUS
 62
1
 10
43.9375
 20
21.25
 11
44.3125
 21
21.125
  0
LINE
  8
Design
  6
CONTINUOUS
 62
1
 10
44.3125
 20
21.125
 11
54.875
 21
21.125
  0
LINE
  8
Design
  6
CONTINUOUS
 62
1
 10
54.875
 20
21.125
 11
54.875
 21
19
  0
LINE
  8
Design
  6
CONTINUOUS
 62
1
 10
54.875
 20
12.75
 11
54.875
 21
10.625
  0
LINE
  8
Design
  6
CONTINUOUS
 62
1
 10
54.875
 20
10.625
 11
44.3125
 21
10.625
  0
LINE
  8
Design
  6
CONTINUOUS
 62
1
 10
44.3125
 20
10.625
 11
43.9375
 21
10.5
  0
LINE
  8
Design
  6
CONTINUOUS
 62
1
 10
43.9375
 20
10.5
 11
33.3125
 21
10.5
  0
LINE
  8
Design
  6
CONTINUOUS
 62
1
 10
33.3125
 20
10.5
 11
33.0625
 21
10.5625
  0
LINE
  8
Design
  6
CONTINUOUS
 62
1
 10
33.3125
 20
12.75
 11
33.3125
 21
14.8125
  0
LINE
  8
Design
  6
CONTINUOUS
 62
1
 10
33.3125
 20
14.8125
 11
32.875
 21
14.8125
  0
LINE
  8
Design
  6
CONTINUOUS
 62
1
 10
32.875
 20
14.8125
 11
32.875
 21
12.75
  0
LINE
  8
Design
  6
CONTINUOUS
 62
1
 10
32.875
 20
12.75
 11
33.3125
 21
12.75
  0
LINE
  8
Design
  6
CONTINUOUS
 62
2
 10
33.3125
 20
14.8125
 11
33.3125
 21
16.9375
  0
LINE
  8
Design
  6
CONTINUOUS
 62
1
 10
33.3125
 20
16.9375
 11
33.3125
 21
19
  0
LINE
  8
Design
  6
CONTINUOUS
 62
1
 10
33.3125
 20
19
 11
32.875
 21
19
  0
LINE
  8
Design
  6
CONTINUOUS
 62
1
 10
32.875
 20
19
 11
32.875
 21
16.9375
  0
LINE
  8
Design
  6
CONTINUOUS
 62
1
 10
32.875
 20
16.9375
 11
33.3125
 21
16.9375
  0
LINE
  8
Design
  6
CONTINUOUS
 62
1
 10
54.875
 20
12.75
 11
55
 21
12.8125
  0
LINE
  8
Design
  6
CONTINUOUS
 62
1
 10
55
 20
12.8125
 11
55
 21
14.75
  0
LINE
  8
Design
  6
CONTINUOUS
 62
1
 10
55
 20
14.75
 11
54.875
 21
14.8125
  0
LINE
  8
Design
  6
CONTINUOUS
 62
1
 10
54.875
 20
14.8125
 11
54.875
 21
16.9375
  0
LINE
  8
Design
  6
CONTINUOUS
 62
1
 10
54.875
 20
16.9375
 11
55
 21
17
  0
LINE
  8
Design
  6
CONTINUOUS
 62
1
 10
55
 20
17
 11
55
 21
18.9375
  0
LINE
  8
Design
  6
CONTINUOUS
 62
1
 10
55
 20
18.9375
 11
54.875
 21
19
  0
LINE
  8
Design
  6
CONTINUOUS
 62
1
 10
33.1875
 20
31.75
 11
38.375
 21
31.75
  0
LINE
  8
Design
  6
CONTINUOUS
 62
1
 10
38.375
 20
31.75
 11
38.375
 21
21.25
  0
LINE
  8
Design
  6
CONTINUOUS
 62
1
 10
32.8125
 20
31.8125
 11
32.8125
 21
31.9375
  0
LINE
  8
Design
  6
CONTINUOUS
 62
1
 10
32.8125
 20
31.9375
 11
40.4375
 21
31.9375
  0
ARC
  8
Design
  6
CONTINUOUS
 62
1
 10
40.437503078
 20
32.875006922
 40
0.937496922
 50
-90.000188092
 51
0.000188092
  0
LINE
  8
Design
  6
CONTINUOUS
 62
1
 10
41.375
 20
32.875
 11
41.375
 21
33.46506
  0
ARC
  8
Design
  6
CONTINUOUS
 62
1
 10
40.249999542
 20
33.465060879
 40
1.125000458
 50
-0.000044791
 51
50.862590216
  0
LINE
  8
Design
  6
CONTINUOUS
 62
1
 10
40.96008
 20
34.33765
 11
32.83555
 21
42.57652
  0
ARC
  8
Design
  6
CONTINUOUS
 62
1
 10
32.875001021
 20
42.624996743
 40
0.062501021
 50
-180.002986085
 51
-129.139156913
  0
LINE
  8
Design
  6
CONTINUOUS
 62
2
 10
32.8125
 20
42.5625
 11
32.8125
 21
31.9375
  0
LINE
  8
Design
  6
CONTINUOUS
 62
2
 10
21.8125
 20
53.125
 11
21.8125
 21
42.70299
  0
LINE
  8
Design
  6
CONTINUOUS
 62
2
 10
22.1875
 20
42.5625
 11
32.8125
 21
42.5625
  0
LINE
  8
Design
  6
CONTINUOUS
 62
2
 10
33.1875
 20
42.70299
 11
33.1875
 21
53.125
  0
ARC
  8
Design
  6
CONTINUOUS
 62
1
 10
32.875002509
 20
42.625003549
 40
0.062502509
 50
-267.173130410
 51
-179.996746817
  0
LINE
  8
Design
  6
CONTINUOUS
 62
1
 10
32.87192
 20
42.68743
 11
37.27653
 21
42.90461
  0
ARC
  8
Design
  6
CONTINUOUS
 62
1
 10
37.227277945
 20
43.903394631
 40
0.999998252
 50
-87.176918027
 51
-1.296981839
  0
ARC
  8
Design
  6
CONTINUOUS
 62
1
 10
27.667229736
 20
44.119837877
 40
10.562496327
 50
-1.296977798
 51
58.491213138
  0
LINE
  8
Design
  6
CONTINUOUS
 62
1
 10
33.1875
 20
53.125
 11
33.1875
 21
53.125
  0
LINE
  8
Design
  6
CONTINUOUS
 62
1
 10
33.1875
 20
53.125
 11
21.8125
 21
53.125
  0
LINE
  8
Design
  6
CONTINUOUS
 62
1
 10
21.8125
 20
53.125
 11
21.8125
 21
53.125
  0
ARC
  8
Design
  6
CONTINUOUS
 62
1
 10
27.332770264
 20
44.119837877
 40
10.562496327
 50
121.508786862
 51
181.296977798
  0
ARC
  8
Design
  6
CONTINUOUS
 62
1
 10
17.772722055
 20
43.903394631
 40
0.999998252
 50
-178.703018161
 51
-92.823081973
  0
LINE
  8
Design
  6
CONTINUOUS
 62
1
 10
17.72347
 20
42.90461
 11
22.12808
 21
42.68743
  0
ARC
  8
Design
  6
CONTINUOUS
 62
1
 10
22.124997491
 20
42.625003549
 40
0.062502509
 50
-0.003253183
 51
87.173130410
  0
LINE
  8
Design
  6
CONTINUOUS
 62
1
 10
22.1875
 20
31.8125
 11
22.1875
 21
31.9375
  0
LINE
  8
Design
  6
CONTINUOUS
 62
1
 10
22.1875
 20
31.9375
 11
14.5625
 21
31.9375
  0
ARC
  8
Design
  6
CONTINUOUS
 62
1
 10
14.562497523
 20
32.875007523
 40
0.937497523
 50
-180.000151377
 51
-89.999848623
  0
LINE
  8
Design
  6
CONTINUOUS
 62
1
 10
13.625
 20
32.875
 11
13.625
 21
33.46506
  0
ARC
  8
Design
  6
CONTINUOUS
 62
1
 10
14.750000410
 20
33.465060902
 40
1.125000410
 50
-230.862591378
 51
-179.999954047
  0
LINE
  8
Design
  6
CONTINUOUS
 62
1
 10
14.03992
 20
34.33765
 11
22.16445
 21
42.57652
  0
ARC
  8
Design
  6
CONTINUOUS
 62
1
 10
22.124998979
 20
42.624996743
 40
0.062501021
 50
-50.860843087
 51
0.002986085
  0
LINE
  8
Design
  6
CONTINUOUS
 62
2
 10
22.1875
 20
42.5625
 11
22.1875
 21
31.9375
  0
ENDSEC
  0
EOF
