  0
SECTION
  2
HEADER
  9
$ACADVER
  1
AC1018
  9
$ACADMAINTVER
 70
     0
  9
$DWGCODEPAGE
  3
ANSI_1251
  9
$INSBASE
 10
0.0
 20
0.0
 30
0.0
  9
$EXTMIN
 10
1.000000000000000E+20
 20
1.000000000000000E+20
 30
1.000000000000000E+20
  9
$EXTMAX
 10
-1.000000000000000E+20
 20
-1.000000000000000E+20
 30
-1.000000000000000E+20
  9
$LIMMIN
 10
0.0
 20
0.0
  9
$LIMMAX
 10
12.0
 20
9.0
  9
$ORTHOMODE
 70
     0
  9
$REGENMODE
 70
     1
  9
$FILLMODE
 70
     1
  9
$QTEXTMODE
 70
     0
  9
$MIRRTEXT
 70
     1
  9
$LTSCALE
 40
1.0
  9
$ATTMODE
 70
     1
  9
$TEXTSIZE
 40
0.2
  9
$TRACEWID
 40
0.05
  9
$TEXTSTYLE
  7
Standard
  9
$CLAYER
  8
0
  9
$CELTYPE
  6
ByLayer
  9
$CECOLOR
 62
   256
  9
$CELTSCALE
 40
1.0
  9
$DISPSILH
 70
     0
  9
$DIMSCALE
 40
1.0
  9
$DIMASZ
 40
0.18
  9
$DIMEXO
 40
0.0625
  9
$DIMDLI
 40
0.38
  9
$DIMRND
 40
0.0
  9
$DIMDLE
 40
0.0
  9
$DIMEXE
 40
0.18
  9
$DIMTP
 40
0.0
  9
$DIMTM
 40
0.0
  9
$DIMTXT
 40
0.18
  9
$DIMCEN
 40
0.09
  9
$DIMTSZ
 40
0.0
  9
$DIMTOL
 70
     0
  9
$DIMLIM
 70
     0
  9
$DIMTIH
 70
     1
  9
$DIMTOH
 70
     1
  9
$DIMSE1
 70
     0
  9
$DIMSE2
 70
     0
  9
$DIMTAD
 70
     0
  9
$DIMZIN
 70
     0
  9
$DIMBLK
  1

  9
$DIMASO
 70
     1
  9
$DIMSHO
 70
     1
  9
$DIMPOST
  1

  9
$DIMAPOST
  1

  9
$DIMALT
 70
     0
  9
$DIMALTD
 70
     2
  9
$DIMALTF
 40
25.4
  9
$DIMLFAC
 40
1.0
  9
$DIMTOFL
 70
     0
  9
$DIMTVP
 40
0.0
  9
$DIMTIX
 70
     0
  9
$DIMSOXD
 70
     0
  9
$DIMSAH
 70
     0
  9
$DIMBLK1
  1

  9
$DIMBLK2
  1

  9
$DIMSTYLE
  2
Standard
  9
$DIMCLRD
 70
     0
  9
$DIMCLRE
 70
     0
  9
$DIMCLRT
 70
     0
  9
$DIMTFAC
 40
1.0
  9
$DIMGAP
 40
0.09
  9
$DIMJUST
 70
     0
  9
$DIMSD1
 70
     0
  9
$DIMSD2
 70
     0
  9
$DIMTOLJ
 70
     1
  9
$DIMTZIN
 70
     0
  9
$DIMALTZ
 70
     0
  9
$DIMALTTZ
 70
     0
  9
$DIMUPT
 70
     0
  9
$DIMDEC
 70
     4
  9
$DIMTDEC
 70
     4
  9
$DIMALTU
 70
     2
  9
$DIMALTTD
 70
     2
  9
$DIMTXSTY
  7
Standard
  9
$DIMAUNIT
 70
     0
  9
$DIMADEC
 70
     0
  9
$DIMALTRND
 40
0.0
  9
$DIMAZIN
 70
     0
  9
$DIMDSEP
 70
    46
  9
$DIMATFIT
 70
     3
  9
$DIMFRAC
 70
     0
  9
$DIMLDRBLK
  1

  9
$DIMLUNIT
 70
     2
  9
$DIMLWD
 70
    -2
  9
$DIMLWE
 70
    -2
  9
$DIMTMOVE
 70
     0
  9
$LUNITS
 70
     2
  9
$LUPREC
 70
     4
  9
$SKETCHINC
 40
0.1
  9
$FILLETRAD
 40
0.5
  9
$AUNITS
 70
     0
  9
$AUPREC
 70
     0
  9
$MENU
  1
.
  9
$ELEVATION
 40
0.0
  9
$PELEVATION
 40
0.0
  9
$THICKNESS
 40
0.0
  9
$LIMCHECK
 70
     0
  9
$CHAMFERA
 40
0.5
  9
$CHAMFERB
 40
0.5
  9
$CHAMFERC
 40
1.0
  9
$CHAMFERD
 40
0.0
  9
$SKPOLY
 70
     0
  9
$TDCREATE
 40
2458029.947603137
  9
$TDUCREATE
 40
2458029.822603137
  9
$TDUPDATE
 40
2458029.947603148
  9
$TDUUPDATE
 40
2458029.822603148
  9
$TDINDWG
 40
0.0000000116
  9
$TDUSRTIMER
 40
0.0000000116
  9
$USRTIMER
 70
     1
  9
$ANGBASE
 50
0.0
  9
$ANGDIR
 70
     0
  9
$PDMODE
 70
     0
  9
$PDSIZE
 40
0.0
  9
$PLINEWID
 40
0.0
  9
$SPLFRAME
 70
     0
  9
$SPLINETYPE
 70
     6
  9
$SPLINESEGS
 70
     8
  9
$HANDSEED
  5
178
  9
$SURFTAB1
 70
     6
  9
$SURFTAB2
 70
     6
  9
$SURFTYPE
 70
     6
  9
$SURFU
 70
     6
  9
$SURFV
 70
     6
  9
$UCSBASE
  2

  9
$UCSNAME
  2

  9
$UCSORG
 10
0.0
 20
0.0
 30
0.0
  9
$UCSXDIR
 10
1.0
 20
0.0
 30
0.0
  9
$UCSYDIR
 10
0.0
 20
1.0
 30
0.0
  9
$UCSORTHOREF
  2

  9
$UCSORTHOVIEW
 70
     0
  9
$UCSORGTOP
 10
0.0
 20
0.0
 30
0.0
  9
$UCSORGBOTTOM
 10
0.0
 20
0.0
 30
0.0
  9
$UCSORGLEFT
 10
0.0
 20
0.0
 30
0.0
  9
$UCSORGRIGHT
 10
0.0
 20
0.0
 30
0.0
  9
$UCSORGFRONT
 10
0.0
 20
0.0
 30
0.0
  9
$UCSORGBACK
 10
0.0
 20
0.0
 30
0.0
  9
$PUCSBASE
  2

  9
$PUCSNAME
  2

  9
$PUCSORG
 10
0.0
 20
0.0
 30
0.0
  9
$PUCSXDIR
 10
1.0
 20
0.0
 30
0.0
  9
$PUCSYDIR
 10
0.0
 20
1.0
 30
0.0
  9
$PUCSORTHOREF
  2

  9
$PUCSORTHOVIEW
 70
     0
  9
$PUCSORGTOP
 10
0.0
 20
0.0
 30
0.0
  9
$PUCSORGBOTTOM
 10
0.0
 20
0.0
 30
0.0
  9
$PUCSORGLEFT
 10
0.0
 20
0.0
 30
0.0
  9
$PUCSORGRIGHT
 10
0.0
 20
0.0
 30
0.0
  9
$PUCSORGFRONT
 10
0.0
 20
0.0
 30
0.0
  9
$PUCSORGBACK
 10
0.0
 20
0.0
 30
0.0
  9
$USERI1
 70
     0
  9
$USERI2
 70
     0
  9
$USERI3
 70
     0
  9
$USERI4
 70
     0
  9
$USERI5
 70
     0
  9
$USERR1
 40
0.0
  9
$USERR2
 40
0.0
  9
$USERR3
 40
0.0
  9
$USERR4
 40
0.0
  9
$USERR5
 40
0.0
  9
$WORLDVIEW
 70
     1
  9
$SHADEDGE
 70
     3
  9
$SHADEDIF
 70
    70
  9
$TILEMODE
 70
     1
  9
$MAXACTVP
 70
    64
  9
$PINSBASE
 10
0.0
 20
0.0
 30
0.0
  9
$PLIMCHECK
 70
     0
  9
$PEXTMIN
 10
1.000000000000000E+20
 20
1.000000000000000E+20
 30
1.000000000000000E+20
  9
$PEXTMAX
 10
-1.000000000000000E+20
 20
-1.000000000000000E+20
 30
-1.000000000000000E+20
  9
$PLIMMIN
 10
0.0
 20
0.0
  9
$PLIMMAX
 10
12.0
 20
9.0
  9
$UNITMODE
 70
     0
  9
$VISRETAIN
 70
     1
  9
$PLINEGEN
 70
     0
  9
$PSLTSCALE
 70
     1
  9
$TREEDEPTH
 70
  3020
  9
$CMLSTYLE
  2
Standard
  9
$CMLJUST
 70
     0
  9
$CMLSCALE
 40
1.0
  9
$PROXYGRAPHICS
 70
     1
  9
$MEASUREMENT
 70
     0
  9
$CELWEIGHT
370
    -1
  9
$ENDCAPS
280
     0
  9
$JOINSTYLE
280
     0
  9
$LWDISPLAY
290
     1
  9
$INSUNITS
 70
     1
  9
$HYPERLINKBASE
  1

  9
$STYLESHEET
  1

  9
$XEDIT
290
     1
  9
$CEPSNTYPE
380
     0
  9
$PSTYLEMODE
290
     1
  9
$FINGERPRINTGUID
  2
{A2207A11-6148-4684-8966-847EC61D1D86}
  9
$VERSIONGUID
  2
{FAEB1C32-E019-11D5-929B-00C0DF256EC4}
  9
$EXTNAMES
290
     1
  9
$PSVPSCALE
 40
0.0
  9
$OLESTARTUP
290
     0
  9
$SORTENTS
280
   127
  9
$INDEXCTL
280
     0
  9
$HIDETEXT
280
     1
  9
$XCLIPFRAME
290
     0
  9
$HALOGAP
280
     0
  9
$OBSCOLOR
 70
   257
  9
$OBSLTYPE
280
     0
  9
$INTERSECTIONDISPLAY
280
     0
  9
$INTERSECTIONCOLOR
 70
   257
  9
$DIMASSOC
280
     2
  9
$PROJECTNAME
  1

  0
ENDSEC
  0
SECTION
  2
CLASSES
  0
CLASS
  1
ACDBDICTIONARYWDFLT
  2
AcDbDictionaryWithDefault
  3
ObjectDBX Classes
 90
        0
 91
        3
280
     0
281
     0
  0
CLASS
  1
VISUALSTYLE
  2
AcDbVisualStyle
  3
ObjectDBX Classes
 90
     4095
 91
        3
280
     0
281
     0
  0
ENDSEC
  0
SECTION
  2
TABLES
  0
TABLE
  2
VPORT
  5
8
330
0
100
AcDbSymbolTable
 70
     1
  0
VPORT
  5
29
330
8
100
AcDbSymbolTableRecord
100
AcDbViewportTableRecord
  2
*Active
 70
     0
 10
0.0
 20
0.0
 11
1.0
 21
1.0
 12
0.0
 22
0.0
 13
0.0
 23
0.0
 14
0.5
 24
0.5
 15
0.5
 25
0.5
 16
0.0
 26
0.0
 36
1.0
 17
95.24999997618751
 27
126.99999996825
 37
0.0
 40
253.9999999365
 41
0.75
 42
50.0
 43
0.0
 44
0.0
 50
0.0
 51
0.0
 71
     0
 72
   100
 73
     1
 74
     3
 75
     0
 76
     0
 77
     0
 78
     0
281
     0
 65
     1
110
0.0
120
0.0
130
0.0
111
1.0
121
0.0
131
0.0
112
0.0
122
1.0
132
0.0
 79
     0
146
0.0
  0
ENDTAB
  0
TABLE
  2
LTYPE
  5
5
330
0
100
AcDbSymbolTable
 70
     1
  0
LTYPE
  5
14
330
5
100
AcDbSymbolTableRecord
100
AcDbLinetypeTableRecord
  2
ByBlock
 70
     0
  3

 72
    65
 73
     0
 40
0.0
  0
LTYPE
  5
15
330
5
100
AcDbSymbolTableRecord
100
AcDbLinetypeTableRecord
  2
ByLayer
 70
     0
  3

 72
    65
 73
     0
 40
0.0
  0
LTYPE
  5
16
330
5
100
AcDbSymbolTableRecord
100
AcDbLinetypeTableRecord
  2
Continuous
 70
     0
  3
Solid line
 72
    65
 73
     0
 40
0.0
  0
ENDTAB
  0
TABLE
  2
LAYER
  5
2
330
0
100
AcDbSymbolTable
 70
     2
  0
LAYER
  5
10
330
2
100
AcDbSymbolTableRecord
100
AcDbLayerTableRecord
  2
0
 70
     0
 62
     7
  6
Continuous
370
    -3
390
F
  0
LAYER
  5
3B
330
2
100
AcDbSymbolTableRecord
100
AcDbLayerTableRecord
  2
Layer1
 70
     0
 62
     7
  6
Continuous
370
    -3
390
F
  0
ENDTAB
  0
TABLE
  2
STYLE
  5
3
330
0
100
AcDbSymbolTable
 70
     1
  0
STYLE
  5
11
330
3
100
AcDbSymbolTableRecord
100
AcDbTextStyleTableRecord
  2
Standard
 70
     0
 40
0.0
 41
1.0
 50
0.0
 71
     0
 42
0.2
  3
txt
  4

  0
ENDTAB
  0
TABLE
  2
VIEW
  5
6
330
0
100
AcDbSymbolTable
 70
     0
  0
ENDTAB
  0
TABLE
  2
UCS
  5
7
330
0
100
AcDbSymbolTable
 70
     0
  0
ENDTAB
  0
TABLE
  2
APPID
  5
9
330
0
100
AcDbSymbolTable
 70
     1
  0
APPID
  5
12
330
9
100
AcDbSymbolTableRecord
100
AcDbRegAppTableRecord
  2
ACAD
 70
     0
  0
ENDTAB
  0
TABLE
  2
DIMSTYLE
  5
A
330
0
100
AcDbSymbolTable
 70
     1
100
AcDbDimStyleTable
  0
DIMSTYLE
105
27
330
A
100
AcDbSymbolTableRecord
100
AcDbDimStyleTableRecord
  2
Standard
 70
     0
340
11
  0
ENDTAB
  0
TABLE
  2
BLOCK_RECORD
  5
1
330
0
100
AcDbSymbolTable
 70
     1
  0
BLOCK_RECORD
  5
1F
330
1
100
AcDbSymbolTableRecord
100
AcDbBlockTableRecord
  2
*Model_Space
340
22
  0
BLOCK_RECORD
  5
1B
330
1
100
AcDbSymbolTableRecord
100
AcDbBlockTableRecord
  2
*Paper_Space
340
1E
  0
BLOCK_RECORD
  5
23
330
1
100
AcDbSymbolTableRecord
100
AcDbBlockTableRecord
  2
*Paper_Space0
340
26
  0
ENDTAB
  0
ENDSEC
  0
SECTION
  2
BLOCKS
  0
BLOCK
  5
20
330
1F
100
AcDbEntity
  8
0
100
AcDbBlockBegin
  2
*Model_Space
 70
     0
 71
     0
 10
0.0
 20
0.0
 30
0.0
  3
*Model_Space
  1

  0
ENDBLK
  5
21
330
1F
100
AcDbEntity
  8
0
100
AcDbBlockEnd
  0
BLOCK
  5
1C
330
1B
100
AcDbEntity
 67
     1
  8
0
100
AcDbBlockBegin
  2
*Paper_Space
 70
     0
 71
     0
 10
0.0
 20
0.0
 30
0.0
  3
*Paper_Space
  1

  0
ENDBLK
  5
1D
330
1B
100
AcDbEntity
 67
     1
  8
0
100
AcDbBlockEnd
  0
BLOCK
  5
24
330
23
100
AcDbEntity
  8
0
100
AcDbBlockBegin
  2
*Paper_Space0
 70
     0
 71
     0
 10
0.0
 20
0.0
 30
0.0
  3
*Paper_Space0
  1

  0
ENDBLK
  5
25
330
23
100
AcDbEntity
  8
0
100
AcDbBlockEnd
  0
ENDSEC
  0
SECTION
  2
ENTITIES
  0
POLYLINE
  5
3C
330
1F
100
AcDbEntity
  8
Layer1
 62
     3
370
    35
100
AcDb2dPolyline
 66
     1
 10
0.0
 20
0.0
 30
0.0
  0
VERTEX
  5
3D
330
3C
100
AcDbEntity
  8
Layer1
 62
     3
370
    35
100
AcDbVertex
100
AcDb2dVertex
 10
239.999993158316
 20
188.8889010486979
 30
0.0
  0
VERTEX
  5
3E
330
3C
100
AcDbEntity
  8
Layer1
 62
     3
370
    35
100
AcDbVertex
100
AcDb2dVertex
 10
239.999993158316
 20
93.36122637639929
 30
0.0
  0
SEQEND
  5
3F
330
3C
100
AcDbEntity
  8
Layer1
370
    35
  0
POLYLINE
  5
40
330
1F
100
AcDbEntity
  8
Layer1
 62
     7
370
    35
100
AcDb2dPolyline
 66
     1
 10
0.0
 20
0.0
 30
0.0
  0
VERTEX
  5
41
330
40
100
AcDbEntity
  8
Layer1
 62
     7
370
    35
100
AcDbVertex
100
AcDb2dVertex
 10
111.0001152608784
 20
88.12502574836806
 30
0.0
  0
VERTEX
  5
42
330
40
100
AcDbEntity
  8
Layer1
 62
     7
370
    35
100
AcDbVertex
100
AcDb2dVertex
 10
128.000111187618
 20
88.12502574836806
 30
0.0
  0
SEQEND
  5
43
330
40
100
AcDbEntity
  8
Layer1
370
    35
  0
POLYLINE
  5
44
330
1F
100
AcDbEntity
  8
Layer1
 62
     7
370
    35
100
AcDb2dPolyline
 66
     1
 10
0.0
 20
0.0
 30
0.0
  0
VERTEX
  5
45
330
44
100
AcDbEntity
  8
Layer1
 62
     7
370
    35
100
AcDbVertex
100
AcDb2dVertex
 10
165.0000921896528
 20
194.1251016767291
 30
0.0
  0
VERTEX
  5
46
330
44
100
AcDbEntity
  8
Layer1
 62
     7
370
    35
100
AcDbVertex
100
AcDb2dVertex
 10
163.9999809702847
 20
192.1248792379931
 30
0.0
  0
SEQEND
  5
47
330
44
100
AcDbEntity
  8
Layer1
370
    35
  0
POLYLINE
  5
48
330
1F
100
AcDbEntity
  8
Layer1
 62
     3
370
    35
100
AcDb2dPolyline
 66
     1
 10
0.0
 20
0.0
 30
0.0
  0
VERTEX
  5
49
330
48
100
AcDbEntity
  8
Layer1
 62
     3
370
    35
100
AcDbVertex
100
AcDb2dVertex
 10
238.999881938948
 20
90.12490367755558
 30
0.0
  0
VERTEX
  5
4A
330
48
100
AcDbEntity
  8
Layer1
 62
     3
370
    35
100
AcDbVertex
100
AcDb2dVertex
 10
163.9999809702847
 20
90.12490367755558
 30
0.0
  0
SEQEND
  5
4B
330
48
100
AcDbEntity
  8
Layer1
370
    35
  0
POLYLINE
  5
4C
330
1F
100
AcDbEntity
  8
Layer1
 62
     7
370
    35
100
AcDb2dPolyline
 66
     1
 10
0.0
 20
0.0
 30
0.0
  0
VERTEX
  5
4D
330
4C
100
AcDbEntity
  8
Layer1
 62
     7
370
    35
100
AcDbVertex
100
AcDb2dVertex
 10
163.9999809702847
 20
90.12490367755558
 30
0.0
  0
VERTEX
  5
4E
330
4C
100
AcDbEntity
  8
Layer1
 62
     7
370
    35
100
AcDbVertex
100
AcDb2dVertex
 10
165.0000921896528
 20
88.12502574836806
 30
0.0
  0
SEQEND
  5
4F
330
4C
100
AcDbEntity
  8
Layer1
370
    35
  0
POLYLINE
  5
50
330
1F
100
AcDbEntity
  8
Layer1
 62
     7
370
    35
100
AcDb2dPolyline
 66
     1
 10
0.0
 20
0.0
 30
0.0
  0
VERTEX
  5
51
330
50
100
AcDbEntity
  8
Layer1
 62
     7
370
    35
100
AcDbVertex
100
AcDb2dVertex
 10
165.0000921896528
 20
88.12502574836806
 30
0.0
  0
VERTEX
  5
52
330
50
100
AcDbEntity
  8
Layer1
 62
     7
370
    35
100
AcDbVertex
100
AcDb2dVertex
 10
165.0000921896528
 20
12.1250135603368
 30
0.0
  0
SEQEND
  5
53
330
50
100
AcDbEntity
  8
Layer1
370
    35
  0
POLYLINE
  5
54
330
1F
100
AcDbEntity
  8
Layer1
 62
     7
370
    35
100
AcDb2dPolyline
 66
     1
 10
0.0
 20
0.0
 30
0.0
  0
VERTEX
  5
55
330
54
100
AcDbEntity
  8
Layer1
 62
     7
370
    35
100
AcDbVertex
100
AcDb2dVertex
 10
165.0000921896528
 20
12.1250135603368
 30
0.0
  0
VERTEX
  5
56
330
54
100
AcDbEntity
  8
Layer1
 62
     7
370
    35
100
AcDbVertex
100
AcDb2dVertex
 10
165.0000921896528
 20
47.62499998809376
 30
0.0
  0
SEQEND
  5
57
330
54
100
AcDbEntity
  8
Layer1
370
    35
  0
POLYLINE
  5
58
330
1F
100
AcDbEntity
  8
Layer1
 62
     7
370
    35
100
AcDb2dPolyline
 66
     1
 10
0.0
 20
0.0
 30
0.0
  0
VERTEX
  5
59
330
58
100
AcDbEntity
  8
Layer1
 62
     7
370
    35
100
AcDbVertex
100
AcDb2dVertex
 10
165.0000921896528
 20
47.62499998809376
 30
0.0
  0
VERTEX
  5
5A
330
58
100
AcDbEntity
  8
Layer1
 62
     7
370
    35
100
AcDbVertex
100
AcDb2dVertex
 10
238.999881938948
 20
47.62499998809376
 30
0.0
  0
SEQEND
  5
5B
330
58
100
AcDbEntity
  8
Layer1
370
    35
  0
POLYLINE
  5
5C
330
1F
100
AcDbEntity
  8
Layer1
 62
     7
370
    35
100
AcDb2dPolyline
 66
     1
 10
0.0
 20
0.0
 30
0.0
  0
VERTEX
  5
5D
330
5C
100
AcDbEntity
  8
Layer1
 62
     7
370
    35
100
AcDbVertex
100
AcDb2dVertex
 10
238.999881938948
 20
47.62499998809376
 30
0.0
  0
VERTEX
  5
5E
330
5C
100
AcDbEntity
  8
Layer1
 62
     7
370
    35
100
AcDbVertex
100
AcDb2dVertex
 10
238.999881938948
 20
91.12501489692362
 30
0.0
  0
SEQEND
  5
5F
330
5C
100
AcDbEntity
  8
Layer1
370
    35
  0
SPLINE
  5
60
330
1F
100
AcDbEntity
  8
Layer1
 62
     7
370
    35
100
AcDbSpline
210
0.0
220
0.0
230
1.0
 70
     8
 71
     3
 72
    17
 73
    13
 74
     0
 42
0.0000000001
 43
0.0000000001
 40
0.0
 40
0.0
 40
0.0
 40
0.0
 40
1.0
 40
1.0
 40
1.0
 40
2.0
 40
2.0
 40
2.0
 40
3.0
 40
3.0
 40
3.0
 40
4.0
 40
4.0
 40
4.0
 40
4.0
 10
238.999881938948
 20
91.12501489692362
 30
0.0
 10
238.999881938948
 20
91.84503985334082
 30
0.0
 10
239.2698051702173
 20
92.56179196904705
 30
0.0
 10
239.7445393280847
 20
93.1030164697798
 30
0.0
 10
240.2191012311779
 20
93.64424097051256
 30
0.0
 10
240.8946844558354
 20
94.005459232141
 30
0.0
 10
241.6083359856049
 20
94.0991658293398
 30
0.0
 10
242.3223320249229
 20
94.19338919086138
 30
0.0
 10
243.0681951974795
 20
94.01958412363052
 30
0.0
 10
243.6667805380416
 20
93.61943628301876
 30
0.0
 10
244.2655381333781
 20
93.21946069718125
 30
0.0
 10
244.7113334891694
 20
92.59675968822235
 30
0.0
 10
244.8977131549214
 20
91.90136716452466
 30
0.0
  0
POLYLINE
  5
61
330
1F
100
AcDbEntity
  8
Layer1
 62
     7
370
    35
100
AcDb2dPolyline
 66
     1
 10
0.0
 20
0.0
 30
0.0
  0
VERTEX
  5
62
330
61
100
AcDbEntity
  8
Layer1
 62
     7
370
    35
100
AcDbVertex
100
AcDb2dVertex
 10
244.8977131549214
 20
91.90136716452466
 30
0.0
  0
VERTEX
  5
63
330
61
100
AcDbEntity
  8
Layer1
 62
     7
370
    35
100
AcDbVertex
100
AcDb2dVertex
 10
260.4261365451366
 20
33.94865993074895
 30
0.0
  0
SEQEND
  5
64
330
61
100
AcDbEntity
  8
Layer1
370
    35
  0
SPLINE
  5
65
330
1F
100
AcDbEntity
  8
Layer1
 62
     7
370
    35
100
AcDbSpline
210
0.0
220
0.0
230
1.0
 70
     8
 71
     3
 72
    11
 73
     7
 74
     0
 42
0.0000000001
 43
0.0000000001
 40
0.0
 40
0.0
 40
0.0
 40
0.0
 40
1.0
 40
1.0
 40
1.0
 40
2.0
 40
2.0
 40
2.0
 40
2.0
 10
260.4261365451366
 20
33.94865993074895
 30
0.0
 10
261.5554388452014
 20
29.7339301140943
 30
0.0
 10
264.1077378354487
 20
25.91418049482354
 30
0.0
 10
267.5695420338021
 20
23.25801187569591
 30
0.0
 10
271.0310017226068
 20
20.60167100179403
 30
0.0
 10
275.3814683013803
 20
19.12493082204168
 30
0.0
 10
279.7446817334493
 20
19.12493082204168
 30
0.0
  0
POLYLINE
  5
66
330
1F
100
AcDbEntity
  8
Layer1
 62
     7
370
    35
100
AcDb2dPolyline
 66
     1
 10
0.0
 20
0.0
 30
0.0
  0
VERTEX
  5
67
330
66
100
AcDbEntity
  8
Layer1
 62
     7
370
    35
100
AcDbVertex
100
AcDb2dVertex
 10
279.7446817334493
 20
19.12493082204168
 30
0.0
  0
VERTEX
  5
68
330
66
100
AcDbEntity
  8
Layer1
 62
     7
370
    35
100
AcDbVertex
100
AcDb2dVertex
 10
282.0253349446846
 20
19.12493082204168
 30
0.0
  0
SEQEND
  5
69
330
66
100
AcDbEntity
  8
Layer1
370
    35
  0
SPLINE
  5
6A
330
1F
100
AcDbEntity
  8
Layer1
 62
     7
370
    35
100
AcDbSpline
210
0.0
220
0.0
230
1.0
 70
     8
 71
     3
 72
     8
 73
     4
 74
     0
 42
0.0000000001
 43
0.0000000001
 40
0.0
 40
0.0
 40
0.0
 40
0.0
 40
1.0
 40
1.0
 40
1.0
 40
1.0
 10
282.0253349446846
 20
19.12493082204168
 30
0.0
 10
286.2192219336536
 20
19.12493082204168
 30
0.0
 10
290.4024291266181
 20
20.48608804826389
 30
0.0
 10
293.7936088675239
 20
22.95380994434835
 30
0.0
  0
SPLINE
  5
6B
330
1F
100
AcDbEntity
  8
Layer1
 62
     7
370
    35
100
AcDbSpline
210
0.0
220
0.0
230
1.0
 70
     8
 71
     3
 72
    11
 73
     7
 74
     0
 42
0.0000000001
 43
0.0000000001
 40
0.0
 40
0.0
 40
0.0
 40
0.0
 40
1.0
 40
1.0
 40
1.0
 40
2.0
 40
2.0
 40
2.0
 40
2.0
 10
293.7936088675239
 20
22.95380994434835
 30
0.0
 10
304.7000921547278
 20
30.89096543281546
 30
0.0
 10
313.7429510391858
 20
41.37266844668809
 30
0.0
 10
319.99562709014
 20
53.32525497798813
 30
0.0
 10
326.2477863767714
 20
65.27801376406245
 30
0.0
 10
329.7008055816373
 20
78.68356931626661
 30
0.0
 10
330.0003566340798
 20
92.16956784805136
 30
0.0
  0
SPLINE
  5
6C
330
1F
100
AcDbEntity
  8
Layer1
 62
     7
370
    35
100
AcDbSpline
210
0.0
220
0.0
230
1.0
 70
     8
 71
     3
 72
    17
 73
    13
 74
     0
 42
0.0000000001
 43
0.0000000001
 40
0.0
 40
0.0
 40
0.0
 40
0.0
 40
1.0
 40
1.0
 40
1.0
 40
2.0
 40
2.0
 40
2.0
 40
3.0
 40
3.0
 40
3.0
 40
4.0
 40
4.0
 40
4.0
 40
4.0
 10
330.0003566340798
 20
92.16956784805136
 30
0.0
 10
330.0118977039554
 20
92.6892605020013
 30
0.0
 10
330.2360011652709
 20
93.20102943633516
 30
0.0
 10
330.6096217706462
 20
93.56259220751214
 30
0.0
 10
330.9830701212473
 20
93.92398272391485
 30
0.0
 10
331.5024182656487
 20
94.13068845302983
 30
0.0
 10
332.0221109195987
 20
94.12500404547917
 30
0.0
 10
332.5421480830971
 20
94.11897512837999
 30
0.0
 10
333.0565008390449
 20
93.90090058416367
 30
0.0
 10
333.4218532152557
 20
93.53124183859636
 30
0.0
 10
333.7877223557892
 20
93.16158309302905
 30
0.0
 10
334.0001124924548
 20
92.64481877024157
 30
0.0
 10
334.0001124924548
 20
92.12512611629164
 30
0.0
  0
POLYLINE
  5
6D
330
1F
100
AcDbEntity
  8
Layer1
 62
     7
370
    35
100
AcDb2dPolyline
 66
     1
 10
0.0
 20
0.0
 30
0.0
  0
VERTEX
  5
6E
330
6D
100
AcDbEntity
  8
Layer1
 62
     7
370
    35
100
AcDbVertex
100
AcDb2dVertex
 10
334.0001124924548
 20
92.12512611629164
 30
0.0
  0
VERTEX
  5
6F
330
6D
100
AcDbEntity
  8
Layer1
 62
     7
370
    35
100
AcDbVertex
100
AcDb2dVertex
 10
334.0001124924548
 20
89.12513696773608
 30
0.0
  0
SEQEND
  5
70
330
6D
100
AcDbEntity
  8
Layer1
370
    35
  0
POLYLINE
  5
71
330
1F
100
AcDbEntity
  8
Layer1
 62
     3
370
    35
100
AcDb2dPolyline
 66
     1
 10
0.0
 20
0.0
 30
0.0
  0
VERTEX
  5
72
330
71
100
AcDbEntity
  8
Layer1
 62
     3
370
    35
100
AcDbVertex
100
AcDb2dVertex
 10
334.0001124924548
 20
89.12513696773608
 30
0.0
  0
VERTEX
  5
73
330
71
100
AcDbEntity
  8
Layer1
 62
     3
370
    35
100
AcDbVertex
100
AcDb2dVertex
 10
406.999791022382
 20
89.12513696773608
 30
0.0
  0
SEQEND
  5
74
330
71
100
AcDbEntity
  8
Layer1
370
    35
  0
POLYLINE
  5
75
330
1F
100
AcDbEntity
  8
Layer1
 62
     7
370
    35
100
AcDb2dPolyline
 66
     1
 10
0.0
 20
0.0
 30
0.0
  0
VERTEX
  5
76
330
75
100
AcDbEntity
  8
Layer1
 62
     7
370
    35
100
AcDbVertex
100
AcDb2dVertex
 10
406.999791022382
 20
89.12513696773608
 30
0.0
  0
VERTEX
  5
77
330
75
100
AcDbEntity
  8
Layer1
 62
     7
370
    35
100
AcDbVertex
100
AcDb2dVertex
 10
406.999791022382
 20
121.1249063824792
 30
0.0
  0
SEQEND
  5
78
330
75
100
AcDbEntity
  8
Layer1
370
    35
  0
SPLINE
  5
79
330
1F
100
AcDbEntity
  8
Layer1
 62
     7
370
    35
100
AcDbSpline
210
0.0
220
0.0
230
1.0
 70
     8
 71
     3
 72
    17
 73
    13
 74
     0
 42
0.0000000001
 43
0.0000000001
 40
0.0
 40
0.0
 40
0.0
 40
0.0
 40
1.0
 40
1.0
 40
1.0
 40
2.0
 40
2.0
 40
2.0
 40
3.0
 40
3.0
 40
3.0
 40
4.0
 40
4.0
 40
4.0
 40
4.0
 10
406.999791022382
 20
121.1249063824792
 30
0.0
 10
401.7644516682221
 20
121.1249063824792
 30
0.0
 10
396.5609794473007
 20
123.2803303728258
 30
0.0
 10
392.8568127815601
 20
126.9827744908238
 30
0.0
 10
389.156263466079
 20
130.6850463540475
 30
0.0
 10
387.0006672209582
 20
135.8890353392916
 30
0.0
 10
387.0006672209582
 20
141.1248914577743
 30
0.0
 10
387.0006672209582
 20
146.3610920858056
 30
0.0
 10
389.156263466079
 20
151.5645643067269
 30
0.0
 10
392.8568127815601
 20
155.2670084247249
 30
0.0
 10
396.5609794473007
 20
158.9694525427229
 30
0.0
 10
401.7644516682221
 20
161.1248765330695
 30
0.0
 10
406.999791022382
 20
161.1248765330695
 30
0.0
  0
POLYLINE
  5
7A
330
1F
100
AcDbEntity
  8
Layer1
 62
     7
370
    35
100
AcDb2dPolyline
 66
     1
 10
0.0
 20
0.0
 30
0.0
  0
VERTEX
  5
7B
330
7A
100
AcDbEntity
  8
Layer1
 62
     7
370
    35
100
AcDbVertex
100
AcDb2dVertex
 10
406.999791022382
 20
161.1248765330695
 30
0.0
  0
VERTEX
  5
7C
330
7A
100
AcDbEntity
  8
Layer1
 62
     7
370
    35
100
AcDbVertex
100
AcDb2dVertex
 10
406.999791022382
 20
193.1249904573611
 30
0.0
  0
SEQEND
  5
7D
330
7A
100
AcDbEntity
  8
Layer1
370
    35
  0
SPLINE
  5
7E
330
1F
100
AcDbEntity
  8
Layer1
 62
     7
370
    35
100
AcDbSpline
210
0.0
220
0.0
230
1.0
 70
     8
 71
     3
 72
    11
 73
     7
 74
     0
 42
0.0000000001
 43
0.0000000001
 40
0.0
 40
0.0
 40
0.0
 40
0.0
 40
1.0
 40
1.0
 40
1.0
 40
2.0
 40
2.0
 40
2.0
 40
2.0
 10
406.999791022382
 20
193.1249904573611
 30
0.0
 10
406.999791022382
 20
209.0536478155751
 30
0.0
 10
401.6092501166116
 20
224.9345906013184
 30
0.0
 10
391.9113063256333
 20
237.5704256947307
 30
0.0
 10
382.2135347894293
 20
250.2066052976914
 30
0.0
 10
368.2646876792012
 20
259.5220573624198
 30
0.0
 10
352.8800970254953
 20
263.6414441615202
 30
0.0
  0
SPLINE
  5
7F
330
1F
100
AcDbEntity
  8
Layer1
 62
     7
370
    35
100
AcDbSpline
210
0.0
220
0.0
230
1.0
 70
     8
 71
     3
 72
    14
 73
    10
 74
     0
 42
0.0000000001
 43
0.0000000001
 40
0.0
 40
0.0
 40
0.0
 40
0.0
 40
1.0
 40
1.0
 40
1.0
 40
2.0
 40
2.0
 40
2.0
 40
3.0
 40
3.0
 40
3.0
 40
3.0
 10
352.8800970254953
 20
263.6414441615202
 30
0.0
 10
349.9290282328303
 20
264.4313184289009
 30
0.0
 10
346.7374917752948
 20
264.2912752974254
 30
0.0
 10
343.8677272360817
 20
263.246291709362
 30
0.0
 10
340.9981349516428
 20
262.2013942486858
 30
0.0
 10
338.4637504579188
 20
260.2565517198751
 30
0.0
 10
336.7122639132178
 20
257.7546372510996
 30
0.0
 10
334.9607773685167
 20
255.252722782324
 30
0.0
 10
334.0001124924548
 20
252.2057942077819
 30
0.0
 10
334.0001124924548
 20
249.151803187495
 30
0.0
  0
POLYLINE
  5
80
330
1F
100
AcDbEntity
  8
Layer1
 62
     7
370
    35
100
AcDb2dPolyline
 66
     1
 10
0.0
 20
0.0
 30
0.0
  0
VERTEX
  5
81
330
80
100
AcDbEntity
  8
Layer1
 62
     7
370
    35
100
AcDbVertex
100
AcDb2dVertex
 10
334.0001124924548
 20
249.151803187495
 30
0.0
  0
VERTEX
  5
82
330
80
100
AcDbEntity
  8
Layer1
 62
     7
370
    35
100
AcDbVertex
100
AcDb2dVertex
 10
334.0001124924548
 20
193.1249904573611
 30
0.0
  0
SEQEND
  5
83
330
80
100
AcDbEntity
  8
Layer1
370
    35
  0
POLYLINE
  5
84
330
1F
100
AcDbEntity
  8
Layer1
 62
     3
370
    35
100
AcDb2dPolyline
 66
     1
 10
0.0
 20
0.0
 30
0.0
  0
VERTEX
  5
85
330
84
100
AcDbEntity
  8
Layer1
 62
     3
370
    35
100
AcDbVertex
100
AcDb2dVertex
 10
334.0001124924548
 20
193.1249904573611
 30
0.0
  0
VERTEX
  5
86
330
84
100
AcDbEntity
  8
Layer1
 62
     3
370
    35
100
AcDbVertex
100
AcDb2dVertex
 10
406.999791022382
 20
193.1249904573611
 30
0.0
  0
SEQEND
  5
87
330
84
100
AcDbEntity
  8
Layer1
370
    35
  0
POLYLINE
  5
88
330
1F
100
AcDbEntity
  8
Layer1
 62
     7
370
    35
100
AcDb2dPolyline
 66
     1
 10
0.0
 20
0.0
 30
0.0
  0
VERTEX
  5
89
330
88
100
AcDbEntity
  8
Layer1
 62
     7
370
    35
100
AcDbVertex
100
AcDb2dVertex
 10
334.0001124924548
 20
193.1249904573611
 30
0.0
  0
VERTEX
  5
8A
330
88
100
AcDbEntity
  8
Layer1
 62
     7
370
    35
100
AcDbVertex
100
AcDb2dVertex
 10
334.0001124924548
 20
190.1250013088056
 30
0.0
  0
SEQEND
  5
8B
330
88
100
AcDbEntity
  8
Layer1
370
    35
  0
SPLINE
  5
8C
330
1F
100
AcDbEntity
  8
Layer1
 62
     7
370
    35
100
AcDbSpline
210
0.0
220
0.0
230
1.0
 70
     8
 71
     3
 72
    17
 73
    13
 74
     0
 42
0.0000000001
 43
0.0000000001
 40
0.0
 40
0.0
 40
0.0
 40
0.0
 40
1.0
 40
1.0
 40
1.0
 40
2.0
 40
2.0
 40
2.0
 40
3.0
 40
3.0
 40
3.0
 40
4.0
 40
4.0
 40
4.0
 40
4.0
 10
334.0001124924548
 20
190.1250013088056
 30
0.0
 10
334.0001124924548
 20
189.6049641453071
 30
0.0
 10
333.7877223557892
 20
189.0881998225196
 30
0.0
 10
333.4218532152557
 20
188.7188855865008
 30
0.0
 10
333.0565008390449
 20
188.3490545861593
 30
0.0
 10
332.5421480830971
 20
188.1308077871687
 30
0.0
 10
332.0221109195987
 20
188.125123379618
 30
0.0
 10
331.5024182656487
 20
188.1194389720674
 30
0.0
 10
330.9830701212473
 20
188.3258001916338
 30
0.0
 10
330.6096217706462
 20
188.6873629628108
 30
0.0
 10
330.2360011652709
 20
189.049097988762
 30
0.0
 10
330.0118977039554
 20
189.5608669230959
 30
0.0
 10
330.0003566340798
 20
190.0805595770458
 30
0.0
  0
SPLINE
  5
8D
330
1F
100
AcDbEntity
  8
Layer1
 62
     7
370
    35
100
AcDbSpline
210
0.0
220
0.0
230
1.0
 70
     8
 71
     3
 72
    11
 73
     7
 74
     0
 42
0.0000000001
 43
0.0000000001
 40
0.0
 40
0.0
 40
0.0
 40
0.0
 40
1.0
 40
1.0
 40
1.0
 40
2.0
 40
2.0
 40
2.0
 40
2.0
 10
330.0003566340798
 20
190.0805595770458
 30
0.0
 10
329.7008055816373
 20
203.5665581088306
 30
0.0
 10
326.2477863767714
 20
216.9721136610348
 30
0.0
 10
319.99562709014
 20
228.9245279375606
 30
0.0
 10
313.7429510391858
 20
240.877372851022
 30
0.0
 10
304.7000921547278
 20
251.3591619922817
 30
0.0
 10
293.7936088675239
 20
259.2963174807488
 30
0.0
  0
SPLINE
  5
8E
330
1F
100
AcDbEntity
  8
Layer1
 62
     7
370
    35
100
AcDbSpline
210
0.0
220
0.0
230
1.0
 70
     8
 71
     3
 72
     8
 73
     4
 74
     0
 42
0.0000000001
 43
0.0000000001
 40
0.0
 40
0.0
 40
0.0
 40
0.0
 40
1.0
 40
1.0
 40
1.0
 40
1.0
 10
293.7936088675239
 20
259.2963174807488
 30
0.0
 10
290.4024291266181
 20
261.7639532494462
 30
0.0
 10
286.2192219336536
 20
263.1249382208941
 30
0.0
 10
282.0253349446846
 20
263.1249382208941
 30
0.0
  0
POLYLINE
  5
8F
330
1F
100
AcDbEntity
  8
Layer1
 62
     7
370
    35
100
AcDb2dPolyline
 66
     1
 10
0.0
 20
0.0
 30
0.0
  0
VERTEX
  5
90
330
8F
100
AcDbEntity
  8
Layer1
 62
     7
370
    35
100
AcDbVertex
100
AcDb2dVertex
 10
282.0253349446846
 20
263.1249382208941
 30
0.0
  0
VERTEX
  5
91
330
8F
100
AcDbEntity
  8
Layer1
 62
     7
370
    35
100
AcDbVertex
100
AcDb2dVertex
 10
279.7446817334493
 20
263.1249382208941
 30
0.0
  0
SEQEND
  5
92
330
8F
100
AcDbEntity
  8
Layer1
370
    35
  0
SPLINE
  5
93
330
1F
100
AcDbEntity
  8
Layer1
 62
     7
370
    35
100
AcDbSpline
210
0.0
220
0.0
230
1.0
 70
     8
 71
     3
 72
    11
 73
     7
 74
     0
 42
0.0000000001
 43
0.0000000001
 40
0.0
 40
0.0
 40
0.0
 40
0.0
 40
1.0
 40
1.0
 40
1.0
 40
2.0
 40
2.0
 40
2.0
 40
2.0
 10
279.7446817334493
 20
263.1249382208941
 30
0.0
 10
275.3814683013803
 20
263.1249382208941
 30
0.0
 10
271.0310017226068
 20
261.6481980411418
 30
0.0
 10
267.5695420338021
 20
258.9922016767884
 30
0.0
 10
264.1077378354487
 20
256.3357746754994
 30
0.0
 10
261.5554388452014
 20
252.5158528014544
 30
0.0
 10
260.4261365451366
 20
248.3012091121869
 30
0.0
  0
POLYLINE
  5
94
330
1F
100
AcDbEntity
  8
Layer1
 62
     7
370
    35
100
AcDb2dPolyline
 66
     1
 10
0.0
 20
0.0
 30
0.0
  0
VERTEX
  5
95
330
94
100
AcDbEntity
  8
Layer1
 62
     7
370
    35
100
AcDbVertex
100
AcDb2dVertex
 10
260.4261365451366
 20
248.3012091121869
 30
0.0
  0
VERTEX
  5
96
330
94
100
AcDbEntity
  8
Layer1
 62
     7
370
    35
100
AcDbVertex
100
AcDb2dVertex
 10
244.8977131549214
 20
190.3487602605725
 30
0.0
  0
SEQEND
  5
97
330
94
100
AcDbEntity
  8
Layer1
370
    35
  0
SPLINE
  5
98
330
1F
100
AcDbEntity
  8
Layer1
 62
     7
370
    35
100
AcDbSpline
210
0.0
220
0.0
230
1.0
 70
     8
 71
     3
 72
    17
 73
    13
 74
     0
 42
0.0000000001
 43
0.0000000001
 40
0.0
 40
0.0
 40
0.0
 40
0.0
 40
1.0
 40
1.0
 40
1.0
 40
2.0
 40
2.0
 40
2.0
 40
3.0
 40
3.0
 40
3.0
 40
4.0
 40
4.0
 40
4.0
 40
4.0
 10
244.8977131549214
 20
190.3487602605725
 30
0.0
 10
244.7113334891694
 20
189.6530232273263
 30
0.0
 10
244.2655381333781
 20
189.030666727916
 30
0.0
 10
243.6667805380416
 20
188.6306911420784
 30
0.0
 10
243.0681951974795
 20
188.2305433014667
 30
0.0
 10
242.3223320249229
 20
188.0567382342358
 30
0.0
 10
241.6083359856049
 20
188.1504448314346
 30
0.0
 10
240.8946844558354
 20
188.2446681929562
 30
0.0
 10
240.2191012311779
 20
188.6055419450361
 30
0.0
 10
239.7445393280847
 20
189.1471109553174
 30
0.0
 10
239.2698051702173
 20
189.6883354560501
 30
0.0
 10
238.999881938948
 20
190.4050875717564
 30
0.0
 10
238.999881938948
 20
191.1251125281736
 30
0.0
  0
POLYLINE
  5
99
330
1F
100
AcDbEntity
  8
Layer1
 62
     7
370
    35
100
AcDb2dPolyline
 66
     1
 10
0.0
 20
0.0
 30
0.0
  0
VERTEX
  5
9A
330
99
100
AcDbEntity
  8
Layer1
 62
     7
370
    35
100
AcDbVertex
100
AcDb2dVertex
 10
238.999881938948
 20
191.1251125281736
 30
0.0
  0
VERTEX
  5
9B
330
99
100
AcDbEntity
  8
Layer1
 62
     7
370
    35
100
AcDbVertex
100
AcDb2dVertex
 10
238.999881938948
 20
234.6251274370034
 30
0.0
  0
SEQEND
  5
9C
330
99
100
AcDbEntity
  8
Layer1
370
    35
  0
POLYLINE
  5
9D
330
1F
100
AcDbEntity
  8
Layer1
 62
     7
370
    35
100
AcDb2dPolyline
 66
     1
 10
0.0
 20
0.0
 30
0.0
  0
VERTEX
  5
9E
330
9D
100
AcDbEntity
  8
Layer1
 62
     7
370
    35
100
AcDbVertex
100
AcDb2dVertex
 10
238.999881938948
 20
234.6251274370034
 30
0.0
  0
VERTEX
  5
9F
330
9D
100
AcDbEntity
  8
Layer1
 62
     7
370
    35
100
AcDbVertex
100
AcDb2dVertex
 10
165.0000921896528
 20
234.6251274370034
 30
0.0
  0
SEQEND
  5
A0
330
9D
100
AcDbEntity
  8
Layer1
370
    35
  0
POLYLINE
  5
A1
330
1F
100
AcDbEntity
  8
Layer1
 62
     7
370
    35
100
AcDb2dPolyline
 66
     1
 10
0.0
 20
0.0
 30
0.0
  0
VERTEX
  5
A2
330
A1
100
AcDbEntity
  8
Layer1
 62
     7
370
    35
100
AcDbVertex
100
AcDb2dVertex
 10
165.0000921896528
 20
234.6251274370034
 30
0.0
  0
VERTEX
  5
A3
330
A1
100
AcDbEntity
  8
Layer1
 62
     7
370
    35
100
AcDbVertex
100
AcDb2dVertex
 10
165.0000921896528
 20
270.1251138647604
 30
0.0
  0
SEQEND
  5
A4
330
A1
100
AcDbEntity
  8
Layer1
370
    35
  0
POLYLINE
  5
A5
330
1F
100
AcDbEntity
  8
Layer1
 62
     7
370
    35
100
AcDb2dPolyline
 66
     1
 10
0.0
 20
0.0
 30
0.0
  0
VERTEX
  5
A6
330
A5
100
AcDbEntity
  8
Layer1
 62
     7
370
    35
100
AcDbVertex
100
AcDb2dVertex
 10
165.0000921896528
 20
270.1251138647604
 30
0.0
  0
VERTEX
  5
A7
330
A5
100
AcDbEntity
  8
Layer1
 62
     7
370
    35
100
AcDbVertex
100
AcDb2dVertex
 10
165.0000921896528
 20
194.1251016767291
 30
0.0
  0
SEQEND
  5
A8
330
A5
100
AcDbEntity
  8
Layer1
370
    35
  0
POLYLINE
  5
A9
330
1F
100
AcDbEntity
  8
Layer1
 62
     3
370
    35
100
AcDb2dPolyline
 66
     1
 10
0.0
 20
0.0
 30
0.0
  0
VERTEX
  5
AA
330
A9
100
AcDbEntity
  8
Layer1
 62
     3
370
    35
100
AcDbVertex
100
AcDb2dVertex
 10
165.0000921896528
 20
194.1251016767291
 30
0.0
  0
VERTEX
  5
AB
330
A9
100
AcDbEntity
  8
Layer1
 62
     3
370
    35
100
AcDbVertex
100
AcDb2dVertex
 10
128.000111187618
 20
194.1251016767291
 30
0.0
  0
SEQEND
  5
AC
330
A9
100
AcDbEntity
  8
Layer1
370
    35
  0
SPLINE
  5
AD
330
1F
100
AcDbEntity
  8
Layer1
 62
     7
370
    35
100
AcDbSpline
210
0.0
220
0.0
230
1.0
 70
     8
 71
     3
 72
    17
 73
    13
 74
     0
 42
0.0000000001
 43
0.0000000001
 40
0.0
 40
0.0
 40
0.0
 40
0.0
 40
1.0
 40
1.0
 40
1.0
 40
2.0
 40
2.0
 40
2.0
 40
3.0
 40
3.0
 40
3.0
 40
4.0
 40
4.0
 40
4.0
 40
4.0
 10
128.000111187618
 20
194.1251016767291
 30
0.0
 10
128.7854207034807
 20
194.1251016767291
 30
0.0
 10
129.5660793404383
 20
193.8016072106642
 30
0.0
 10
130.1214287326606
 20
193.2464300732162
 30
0.0
 10
130.6766058701086
 20
192.6910806809939
 30
0.0
 10
131.0001003361736
 20
191.9104220440363
 30
0.0
 10
131.0001003361736
 20
191.1251125281736
 30
0.0
 10
131.0001003361736
 20
190.3394585027624
 30
0.0
 10
130.6766058701086
 20
189.5591443753533
 30
0.0
 10
130.1214287326606
 20
189.0034504735825
 30
0.0
 10
129.5660793404383
 20
188.4482733361345
 30
0.0
 10
128.7854207034807
 20
188.125123379618
 30
0.0
 10
128.000111187618
 20
188.125123379618
 30
0.0
  0
POLYLINE
  5
AE
330
1F
100
AcDbEntity
  8
Layer1
 62
     7
370
    35
100
AcDb2dPolyline
 66
     1
 10
0.0
 20
0.0
 30
0.0
  0
VERTEX
  5
AF
330
AE
100
AcDbEntity
  8
Layer1
 62
     7
370
    35
100
AcDbVertex
100
AcDb2dVertex
 10
128.000111187618
 20
188.125123379618
 30
0.0
  0
VERTEX
  5
B0
330
AE
100
AcDbEntity
  8
Layer1
 62
     7
370
    35
100
AcDbVertex
100
AcDb2dVertex
 10
111.0001152608784
 20
188.125123379618
 30
0.0
  0
SEQEND
  5
B1
330
AE
100
AcDbEntity
  8
Layer1
370
    35
  0
SPLINE
  5
B2
330
1F
100
AcDbEntity
  8
Layer1
 62
     7
370
    35
100
AcDbSpline
210
0.0
220
0.0
230
1.0
 70
     8
 71
     3
 72
    17
 73
    13
 74
     0
 42
0.0000000001
 43
0.0000000001
 40
0.0
 40
0.0
 40
0.0
 40
0.0
 40
1.0
 40
1.0
 40
1.0
 40
2.0
 40
2.0
 40
2.0
 40
3.0
 40
3.0
 40
3.0
 40
4.0
 40
4.0
 40
4.0
 40
4.0
 10
111.0001152608784
 20
188.125123379618
 30
0.0
 10
110.2144612354672
 20
188.125123379618
 30
0.0
 10
109.4341471080581
 20
188.4482733361345
 30
0.0
 10
108.8784532062873
 20
189.0034504735825
 30
0.0
 10
108.3232760688393
 20
189.5591443753533
 30
0.0
 10
108.0001261123229
 20
190.3394585027624
 30
0.0
 10
108.0001261123229
 20
191.1251125281736
 30
0.0
 10
108.0001261123229
 20
191.9104220440363
 30
0.0
 10
108.3232760688393
 20
192.6910806809939
 30
0.0
 10
108.8784532062873
 20
193.2464300732162
 30
0.0
 10
109.4341471080581
 20
193.8016072106642
 30
0.0
 10
110.2144612354672
 20
194.1251016767291
 30
0.0
 10
111.0001152608784
 20
194.1251016767291
 30
0.0
  0
POLYLINE
  5
B3
330
1F
100
AcDbEntity
  8
Layer1
 62
     7
370
    35
100
AcDb2dPolyline
 66
     1
 10
0.0
 20
0.0
 30
0.0
  0
VERTEX
  5
B4
330
B3
100
AcDbEntity
  8
Layer1
 62
     7
370
    35
100
AcDbVertex
100
AcDb2dVertex
 10
111.0001152608784
 20
194.1251016767291
 30
0.0
  0
VERTEX
  5
B5
330
B3
100
AcDbEntity
  8
Layer1
 62
     7
370
    35
100
AcDbVertex
100
AcDb2dVertex
 10
128.000111187618
 20
194.1251016767291
 30
0.0
  0
SEQEND
  5
B6
330
B3
100
AcDbEntity
  8
Layer1
370
    35
  0
POLYLINE
  5
B7
330
1F
100
AcDbEntity
  8
Layer1
 62
     3
370
    35
100
AcDb2dPolyline
 66
     1
 10
0.0
 20
0.0
 30
0.0
  0
VERTEX
  5
B8
330
B7
100
AcDbEntity
  8
Layer1
 62
     3
370
    35
100
AcDbVertex
100
AcDb2dVertex
 10
111.0001152608784
 20
194.1251016767291
 30
0.0
  0
VERTEX
  5
B9
330
B7
100
AcDbEntity
  8
Layer1
 62
     3
370
    35
100
AcDbVertex
100
AcDb2dVertex
 10
74.00013425884372
 20
194.1251016767291
 30
0.0
  0
SEQEND
  5
BA
330
B7
100
AcDbEntity
  8
Layer1
370
    35
  0
POLYLINE
  5
BB
330
1F
100
AcDbEntity
  8
Layer1
 62
     7
370
    35
100
AcDb2dPolyline
 66
     1
 10
0.0
 20
0.0
 30
0.0
  0
VERTEX
  5
BC
330
BB
100
AcDbEntity
  8
Layer1
 62
     7
370
    35
100
AcDbVertex
100
AcDb2dVertex
 10
74.00013425884372
 20
194.1251016767291
 30
0.0
  0
VERTEX
  5
BD
330
BB
100
AcDbEntity
  8
Layer1
 62
     7
370
    35
100
AcDbVertex
100
AcDb2dVertex
 10
74.99990096866323
 20
191.1251125281736
 30
0.0
  0
SEQEND
  5
BE
330
BB
100
AcDbEntity
  8
Layer1
370
    35
  0
POLYLINE
  5
BF
330
1F
100
AcDbEntity
  8
Layer1
 62
     3
370
    35
100
AcDb2dPolyline
 66
     1
 10
0.0
 20
0.0
 30
0.0
  0
VERTEX
  5
C0
330
BF
100
AcDbEntity
  8
Layer1
 62
     3
370
    35
100
AcDbVertex
100
AcDb2dVertex
 10
74.99990096866323
 20
191.1251125281736
 30
0.0
  0
VERTEX
  5
C1
330
BF
100
AcDbEntity
  8
Layer1
 62
     3
370
    35
100
AcDbVertex
100
AcDb2dVertex
 10
74.99990096866323
 20
91.12501489692362
 30
0.0
  0
SEQEND
  5
C2
330
BF
100
AcDbEntity
  8
Layer1
370
    35
  0
POLYLINE
  5
C3
330
1F
100
AcDbEntity
  8
Layer1
 62
     3
370
    35
100
AcDb2dPolyline
 66
     1
 10
0.0
 20
0.0
 30
0.0
  0
VERTEX
  5
C4
330
C3
100
AcDbEntity
  8
Layer1
 62
     3
370
    35
100
AcDbVertex
100
AcDb2dVertex
 10
74.99990096866323
 20
91.12501489692362
 30
0.0
  0
VERTEX
  5
C5
330
C3
100
AcDbEntity
  8
Layer1
 62
     3
370
    35
100
AcDbVertex
100
AcDb2dVertex
 10
0.0
 20
91.12501489692362
 30
0.0
  0
SEQEND
  5
C6
330
C3
100
AcDbEntity
  8
Layer1
370
    35
  0
POLYLINE
  5
C7
330
1F
100
AcDbEntity
  8
Layer1
 62
     7
370
    35
100
AcDb2dPolyline
 66
     1
 10
0.0
 20
0.0
 30
0.0
  0
VERTEX
  5
C8
330
C7
100
AcDbEntity
  8
Layer1
 62
     7
370
    35
100
AcDbVertex
100
AcDb2dVertex
 10
0.0
 20
91.12501489692362
 30
0.0
  0
VERTEX
  5
C9
330
C7
100
AcDbEntity
  8
Layer1
 62
     7
370
    35
100
AcDbVertex
100
AcDb2dVertex
 10
0.0
 20
191.1251125281736
 30
0.0
  0
SEQEND
  5
CA
330
C7
100
AcDbEntity
  8
Layer1
370
    35
  0
POLYLINE
  5
CB
330
1F
100
AcDbEntity
  8
Layer1
 62
     3
370
    35
100
AcDb2dPolyline
 66
     1
 10
0.0
 20
0.0
 30
0.0
  0
VERTEX
  5
CC
330
CB
100
AcDbEntity
  8
Layer1
 62
     3
370
    35
100
AcDbVertex
100
AcDb2dVertex
 10
0.0
 20
191.1251125281736
 30
0.0
  0
VERTEX
  5
CD
330
CB
100
AcDbEntity
  8
Layer1
 62
     3
370
    35
100
AcDbVertex
100
AcDb2dVertex
 10
74.99990096866323
 20
191.1251125281736
 30
0.0
  0
SEQEND
  5
CE
330
CB
100
AcDbEntity
  8
Layer1
370
    35
  0
POLYLINE
  5
CF
330
1F
100
AcDbEntity
  8
Layer1
 62
     7
370
    35
100
AcDb2dPolyline
 66
     1
 10
0.0
 20
0.0
 30
0.0
  0
VERTEX
  5
D0
330
CF
100
AcDbEntity
  8
Layer1
 62
     7
370
    35
100
AcDbVertex
100
AcDb2dVertex
 10
0.0
 20
191.1251125281736
 30
0.0
  0
VERTEX
  5
D1
330
CF
100
AcDbEntity
  8
Layer1
 62
     7
370
    35
100
AcDbVertex
100
AcDb2dVertex
 10
0.0
 20
234.6251274370034
 30
0.0
  0
SEQEND
  5
D2
330
CF
100
AcDbEntity
  8
Layer1
370
    35
  0
POLYLINE
  5
D3
330
1F
100
AcDbEntity
  8
Layer1
 62
     7
370
    35
100
AcDb2dPolyline
 66
     1
 10
0.0
 20
0.0
 30
0.0
  0
VERTEX
  5
D4
330
D3
100
AcDbEntity
  8
Layer1
 62
     7
370
    35
100
AcDbVertex
100
AcDb2dVertex
 10
0.0
 20
234.6251274370034
 30
0.0
  0
VERTEX
  5
D5
330
D3
100
AcDbEntity
  8
Layer1
 62
     7
370
    35
100
AcDbVertex
100
AcDb2dVertex
 10
74.00013425884372
 20
234.6251274370034
 30
0.0
  0
SEQEND
  5
D6
330
D3
100
AcDbEntity
  8
Layer1
370
    35
  0
POLYLINE
  5
D7
330
1F
100
AcDbEntity
  8
Layer1
 62
     7
370
    35
100
AcDb2dPolyline
 66
     1
 10
0.0
 20
0.0
 30
0.0
  0
VERTEX
  5
D8
330
D7
100
AcDbEntity
  8
Layer1
 62
     7
370
    35
100
AcDbVertex
100
AcDb2dVertex
 10
74.00013425884372
 20
234.6251274370034
 30
0.0
  0
VERTEX
  5
D9
330
D7
100
AcDbEntity
  8
Layer1
 62
     7
370
    35
100
AcDbVertex
100
AcDb2dVertex
 10
74.00013425884372
 20
270.1251138647604
 30
0.0
  0
SEQEND
  5
DA
330
D7
100
AcDbEntity
  8
Layer1
370
    35
  0
POLYLINE
  5
DB
330
1F
100
AcDbEntity
  8
Layer1
 62
     7
370
    35
100
AcDb2dPolyline
 66
     1
 10
0.0
 20
0.0
 30
0.0
  0
VERTEX
  5
DC
330
DB
100
AcDbEntity
  8
Layer1
 62
     7
370
    35
100
AcDbVertex
100
AcDb2dVertex
 10
74.00013425884372
 20
270.1251138647604
 30
0.0
  0
VERTEX
  5
DD
330
DB
100
AcDbEntity
  8
Layer1
 62
     7
370
    35
100
AcDbVertex
100
AcDb2dVertex
 10
74.00013425884372
 20
194.1251016767291
 30
0.0
  0
SEQEND
  5
DE
330
DB
100
AcDbEntity
  8
Layer1
370
    35
  0
POLYLINE
  5
DF
330
1F
100
AcDbEntity
  8
Layer1
 62
     7
370
    35
100
AcDb2dPolyline
 66
     1
 10
0.0
 20
0.0
 30
0.0
  0
VERTEX
  5
E0
330
DF
100
AcDbEntity
  8
Layer1
 62
     7
370
    35
100
AcDbVertex
100
AcDb2dVertex
 10
0.0
 20
91.12501489692362
 30
0.0
  0
VERTEX
  5
E1
330
DF
100
AcDbEntity
  8
Layer1
 62
     7
370
    35
100
AcDbVertex
100
AcDb2dVertex
 10
0.0
 20
47.62499998809376
 30
0.0
  0
SEQEND
  5
E2
330
DF
100
AcDbEntity
  8
Layer1
370
    35
  0
POLYLINE
  5
E3
330
1F
100
AcDbEntity
  8
Layer1
 62
     7
370
    35
100
AcDb2dPolyline
 66
     1
 10
0.0
 20
0.0
 30
0.0
  0
VERTEX
  5
E4
330
E3
100
AcDbEntity
  8
Layer1
 62
     7
370
    35
100
AcDbVertex
100
AcDb2dVertex
 10
0.0
 20
47.62499998809376
 30
0.0
  0
VERTEX
  5
E5
330
E3
100
AcDbEntity
  8
Layer1
 62
     7
370
    35
100
AcDbVertex
100
AcDb2dVertex
 10
74.00013425884372
 20
47.62499998809376
 30
0.0
  0
SEQEND
  5
E6
330
E3
100
AcDbEntity
  8
Layer1
370
    35
  0
POLYLINE
  5
E7
330
1F
100
AcDbEntity
  8
Layer1
 62
     7
370
    35
100
AcDb2dPolyline
 66
     1
 10
0.0
 20
0.0
 30
0.0
  0
VERTEX
  5
E8
330
E7
100
AcDbEntity
  8
Layer1
 62
     7
370
    35
100
AcDbVertex
100
AcDb2dVertex
 10
74.00013425884372
 20
47.62499998809376
 30
0.0
  0
VERTEX
  5
E9
330
E7
100
AcDbEntity
  8
Layer1
 62
     7
370
    35
100
AcDbVertex
100
AcDb2dVertex
 10
74.00013425884372
 20
12.1250135603368
 30
0.0
  0
SEQEND
  5
EA
330
E7
100
AcDbEntity
  8
Layer1
370
    35
  0
POLYLINE
  5
EC
330
1F
100
AcDbEntity
  8
Layer1
 62
     7
370
    35
100
AcDb2dPolyline
 66
     1
 10
0.0
 20
0.0
 30
0.0
  0
VERTEX
  5
ED
330
EC
100
AcDbEntity
  8
Layer1
 62
     7
370
    35
100
AcDbVertex
100
AcDb2dVertex
 10
74.00013425884372
 20
12.1250135603368
 30
0.0
  0
VERTEX
  5
EE
330
EC
100
AcDbEntity
  8
Layer1
 62
     7
370
    35
100
AcDbVertex
100
AcDb2dVertex
 10
76.00001218803125
 20
7.124974227819451
 30
0.0
  0
SEQEND
  5
EF
330
EC
100
AcDbEntity
  8
Layer1
370
    35
  0
POLYLINE
  5
F0
330
1F
100
AcDbEntity
  8
Layer1
 62
     7
370
    35
100
AcDb2dPolyline
 66
     1
 10
0.0
 20
0.0
 30
0.0
  0
VERTEX
  5
F1
330
F0
100
AcDbEntity
  8
Layer1
 62
     7
370
    35
100
AcDbVertex
100
AcDb2dVertex
 10
76.00001218803125
 20
7.124974227819451
 30
0.0
  0
VERTEX
  5
F2
330
F0
100
AcDbEntity
  8
Layer1
 62
     7
370
    35
100
AcDbVertex
100
AcDb2dVertex
 10
76.00001218803125
 20
-67.87509899561803
 30
0.0
  0
SEQEND
  5
F3
330
F0
100
AcDbEntity
  8
Layer1
370
    35
  0
POLYLINE
  5
F4
330
1F
100
AcDbEntity
  8
Layer1
 62
     7
370
    35
100
AcDb2dPolyline
 66
     1
 10
0.0
 20
0.0
 30
0.0
  0
VERTEX
  5
F5
330
F4
100
AcDbEntity
  8
Layer1
 62
     7
370
    35
100
AcDbVertex
100
AcDb2dVertex
 10
76.00001218803125
 20
-67.87509899561803
 30
0.0
  0
VERTEX
  5
F6
330
F4
100
AcDbEntity
  8
Layer1
 62
     7
370
    35
100
AcDbVertex
100
AcDb2dVertex
 10
108.0001261123229
 20
-67.87509899561803
 30
0.0
  0
SEQEND
  5
F7
330
F4
100
AcDbEntity
  8
Layer1
370
    35
  0
POLYLINE
  5
F8
330
1F
100
AcDbEntity
  8
Layer1
 62
     7
370
    35
100
AcDb2dPolyline
 66
     1
 10
0.0
 20
0.0
 30
0.0
  0
VERTEX
  5
F9
330
F8
100
AcDbEntity
  8
Layer1
 62
     7
370
    35
100
AcDbVertex
100
AcDb2dVertex
 10
108.0001261123229
 20
-67.87509899561803
 30
0.0
  0
VERTEX
  5
FA
330
F8
100
AcDbEntity
  8
Layer1
 62
     7
370
    35
100
AcDbVertex
100
AcDb2dVertex
 10
108.8036946342574
 20
-70.87526039894786
 30
0.0
  0
SEQEND
  5
FB
330
F8
100
AcDbEntity
  8
Layer1
370
    35
  0
POLYLINE
  5
FC
330
1F
100
AcDbEntity
  8
Layer1
 62
     7
370
    35
100
AcDb2dPolyline
 66
     1
 10
0.0
 20
0.0
 30
0.0
  0
VERTEX
  5
FD
330
FC
100
AcDbEntity
  8
Layer1
 62
     7
370
    35
100
AcDbVertex
100
AcDb2dVertex
 10
108.8036946342574
 20
-70.87526039894786
 30
0.0
  0
VERTEX
  5
FE
330
FC
100
AcDbEntity
  8
Layer1
 62
     7
370
    35
100
AcDbVertex
100
AcDb2dVertex
 10
130.1961873046905
 20
-70.87526039894786
 30
0.0
  0
SEQEND
  5
FF
330
FC
100
AcDbEntity
  8
Layer1
370
    35
  0
POLYLINE
  5
100
330
1F
100
AcDbEntity
  8
Layer1
 62
     7
370
    35
100
AcDb2dPolyline
 66
     1
 10
0.0
 20
0.0
 30
0.0
  0
VERTEX
  5
101
330
100
100
AcDbEntity
  8
Layer1
 62
     7
370
    35
100
AcDbVertex
100
AcDb2dVertex
 10
130.1961873046905
 20
-70.87526039894786
 30
0.0
  0
VERTEX
  5
102
330
100
100
AcDbEntity
  8
Layer1
 62
     7
370
    35
100
AcDbVertex
100
AcDb2dVertex
 10
131.0001003361736
 20
-67.87509899561803
 30
0.0
  0
SEQEND
  5
103
330
100
100
AcDbEntity
  8
Layer1
370
    35
  0
POLYLINE
  5
104
330
1F
100
AcDbEntity
  8
Layer1
 62
     7
370
    35
100
AcDb2dPolyline
 66
     1
 10
0.0
 20
0.0
 30
0.0
  0
VERTEX
  5
105
330
104
100
AcDbEntity
  8
Layer1
 62
     7
370
    35
100
AcDbVertex
100
AcDb2dVertex
 10
131.0001003361736
 20
-67.87509899561803
 30
0.0
  0
VERTEX
  5
106
330
104
100
AcDbEntity
  8
Layer1
 62
     7
370
    35
100
AcDbVertex
100
AcDb2dVertex
 10
162.9998697509167
 20
-67.87509899561803
 30
0.0
  0
SEQEND
  5
107
330
104
100
AcDbEntity
  8
Layer1
370
    35
  0
POLYLINE
  5
108
330
1F
100
AcDbEntity
  8
Layer1
 62
     7
370
    35
100
AcDb2dPolyline
 66
     1
 10
0.0
 20
0.0
 30
0.0
  0
VERTEX
  5
109
330
108
100
AcDbEntity
  8
Layer1
 62
     7
370
    35
100
AcDbVertex
100
AcDb2dVertex
 10
162.9998697509167
 20
-67.87509899561803
 30
0.0
  0
VERTEX
  5
10A
330
108
100
AcDbEntity
  8
Layer1
 62
     7
370
    35
100
AcDbVertex
100
AcDb2dVertex
 10
162.9998697509167
 20
7.124974227819451
 30
0.0
  0
SEQEND
  5
10B
330
108
100
AcDbEntity
  8
Layer1
370
    35
  0
POLYLINE
  5
10C
330
1F
100
AcDbEntity
  8
Layer1
 62
     3
370
    35
100
AcDb2dPolyline
 66
     1
 10
0.0
 20
0.0
 30
0.0
  0
VERTEX
  5
10D
330
10C
100
AcDbEntity
  8
Layer1
 62
     3
370
    35
100
AcDbVertex
100
AcDb2dVertex
 10
162.9998697509167
 20
7.124974227819451
 30
0.0
  0
VERTEX
  5
10E
330
10C
100
AcDbEntity
  8
Layer1
 62
     3
370
    35
100
AcDbVertex
100
AcDb2dVertex
 10
76.00001218803125
 20
7.124974227819451
 30
0.0
  0
SEQEND
  5
10F
330
10C
100
AcDbEntity
  8
Layer1
370
    35
  0
SPLINE
  5
110
330
1F
100
AcDbEntity
  8
Layer1
 62
     7
370
    35
100
AcDbSpline
210
0.0
220
0.0
230
1.0
 70
     8
 71
     3
 72
    11
 73
     7
 74
     0
 42
0.0000000001
 43
0.0000000001
 40
0.0
 40
0.0
 40
0.0
 40
0.0
 40
1.0
 40
1.0
 40
1.0
 40
2.0
 40
2.0
 40
2.0
 40
2.0
 10
406.999791022382
 20
89.12513696773608
 30
0.0
 10
406.999791022382
 20
73.19639348213494
 30
0.0
 10
401.6092501166116
 20
57.31553682377876
 30
0.0
 10
391.9113063256333
 20
44.67927109343088
 30
0.0
 10
382.2135347894293
 20
32.04352212740579
 30
0.0
 10
368.2646876792012
 20
22.72798393529023
 30
0.0
 10
352.8800970254953
 20
18.60851100880273
 30
0.0
  0
SPLINE
  5
111
330
1F
100
AcDbEntity
  8
Layer1
 62
     7
370
    35
100
AcDbSpline
210
0.0
220
0.0
230
1.0
 70
     8
 71
     3
 72
    14
 73
    10
 74
     0
 42
0.0000000001
 43
0.0000000001
 40
0.0
 40
0.0
 40
0.0
 40
0.0
 40
1.0
 40
1.0
 40
1.0
 40
2.0
 40
2.0
 40
2.0
 40
3.0
 40
3.0
 40
3.0
 40
3.0
 10
352.8800970254953
 20
18.60851100880273
 30
0.0
 10
349.9290282328303
 20
17.81872286880921
 30
0.0
 10
346.7374917752948
 20
17.95859374551035
 30
0.0
 10
343.8677272360817
 20
19.00349120618663
 30
0.0
 10
340.9981349516428
 20
20.04838866686291
 30
0.0
 10
338.4637504579188
 20
21.99366183260922
 30
0.0
 10
336.7122639132178
 20
24.49549017399766
 30
0.0
 10
334.9607773685167
 20
26.99714626061182
 30
0.0
 10
334.0001124924548
 20
30.04433321731531
 30
0.0
 10
334.0001124924548
 20
33.09823811021503
 30
0.0
  0
POLYLINE
  5
112
330
1F
100
AcDbEntity
  8
Layer1
 62
     7
370
    35
100
AcDb2dPolyline
 66
     1
 10
0.0
 20
0.0
 30
0.0
  0
VERTEX
  5
113
330
112
100
AcDbEntity
  8
Layer1
 62
     7
370
    35
100
AcDbVertex
100
AcDb2dVertex
 10
334.0001124924548
 20
33.09823811021503
 30
0.0
  0
VERTEX
  5
114
330
112
100
AcDbEntity
  8
Layer1
 62
     7
370
    35
100
AcDbVertex
100
AcDb2dVertex
 10
334.0001124924548
 20
89.12513696773608
 30
0.0
  0
SEQEND
  5
115
330
112
100
AcDbEntity
  8
Layer1
370
    35
  0
POLYLINE
  5
116
330
1F
100
AcDbEntity
  8
Layer1
 62
     7
370
    35
100
AcDb2dPolyline
 66
     1
 10
0.0
 20
0.0
 30
0.0
  0
VERTEX
  5
117
330
116
100
AcDbEntity
  8
Layer1
 62
     7
370
    35
100
AcDbVertex
100
AcDb2dVertex
 10
162.9998697509167
 20
7.124974227819451
 30
0.0
  0
VERTEX
  5
118
330
116
100
AcDbEntity
  8
Layer1
 62
     7
370
    35
100
AcDbVertex
100
AcDb2dVertex
 10
165.0000921896528
 20
12.1250135603368
 30
0.0
  0
SEQEND
  5
119
330
116
100
AcDbEntity
  8
Layer1
370
    35
  0
POLYLINE
  5
11B
330
1F
100
AcDbEntity
  8
Layer1
 62
     3
370
    35
100
AcDb2dPolyline
 66
     1
 10
0.0
 20
0.0
 30
0.0
  0
VERTEX
  5
11C
330
11B
100
AcDbEntity
  8
Layer1
 62
     3
370
    35
100
AcDbVertex
100
AcDb2dVertex
 10
165.0000921896528
 20
12.1250135603368
 30
0.0
  0
VERTEX
  5
11D
330
11B
100
AcDbEntity
  8
Layer1
 62
     3
370
    35
100
AcDbVertex
100
AcDb2dVertex
 10
74.00013425884372
 20
12.1250135603368
 30
0.0
  0
SEQEND
  5
11E
330
11B
100
AcDbEntity
  8
Layer1
370
    35
  0
POLYLINE
  5
11F
330
1F
100
AcDbEntity
  8
Layer1
 62
     7
370
    35
100
AcDb2dPolyline
 66
     1
 10
0.0
 20
0.0
 30
0.0
  0
VERTEX
  5
120
330
11F
100
AcDbEntity
  8
Layer1
 62
     7
370
    35
100
AcDbVertex
100
AcDb2dVertex
 10
74.00013425884372
 20
12.1250135603368
 30
0.0
  0
VERTEX
  5
121
330
11F
100
AcDbEntity
  8
Layer1
 62
     7
370
    35
100
AcDbVertex
100
AcDb2dVertex
 10
74.00013425884372
 20
88.12502574836806
 30
0.0
  0
SEQEND
  5
122
330
11F
100
AcDbEntity
  8
Layer1
370
    35
  0
POLYLINE
  5
123
330
1F
100
AcDbEntity
  8
Layer1
 62
     7
370
    35
100
AcDb2dPolyline
 66
     1
 10
0.0
 20
0.0
 30
0.0
  0
VERTEX
  5
124
330
123
100
AcDbEntity
  8
Layer1
 62
     7
370
    35
100
AcDbVertex
100
AcDb2dVertex
 10
74.00013425884372
 20
88.12502574836806
 30
0.0
  0
VERTEX
  5
125
330
123
100
AcDbEntity
  8
Layer1
 62
     7
370
    35
100
AcDbVertex
100
AcDb2dVertex
 10
74.99990096866323
 20
91.12501489692362
 30
0.0
  0
SEQEND
  5
126
330
123
100
AcDbEntity
  8
Layer1
370
    35
  0
POLYLINE
  5
127
330
1F
100
AcDbEntity
  8
Layer1
 62
     3
370
    35
100
AcDb2dPolyline
 66
     1
 10
0.0
 20
0.0
 30
0.0
  0
VERTEX
  5
128
330
127
100
AcDbEntity
  8
Layer1
 62
     3
370
    35
100
AcDbVertex
100
AcDb2dVertex
 10
238.999881938948
 20
192.1248792379931
 30
0.0
  0
VERTEX
  5
129
330
127
100
AcDbEntity
  8
Layer1
 62
     3
370
    35
100
AcDbVertex
100
AcDb2dVertex
 10
163.9999809702847
 20
192.1248792379931
 30
0.0
  0
SEQEND
  5
12A
330
127
100
AcDbEntity
  8
Layer1
370
    35
  0
POLYLINE
  5
12B
330
1F
100
AcDbEntity
  8
Layer1
 62
     3
370
    35
100
AcDb2dPolyline
 66
     1
 10
0.0
 20
0.0
 30
0.0
  0
VERTEX
  5
12C
330
12B
100
AcDbEntity
  8
Layer1
 62
     3
370
    35
100
AcDbVertex
100
AcDb2dVertex
 10
163.9999809702847
 20
192.1248792379931
 30
0.0
  0
VERTEX
  5
12D
330
12B
100
AcDbEntity
  8
Layer1
 62
     3
370
    35
100
AcDbVertex
100
AcDb2dVertex
 10
163.9999809702847
 20
90.12490367755558
 30
0.0
  0
SEQEND
  5
12E
330
12B
100
AcDbEntity
  8
Layer1
370
    35
  0
POLYLINE
  5
12F
330
1F
100
AcDbEntity
  8
Layer1
 62
     3
370
    35
100
AcDb2dPolyline
 66
     1
 10
0.0
 20
0.0
 30
0.0
  0
VERTEX
  5
130
330
12F
100
AcDbEntity
  8
Layer1
 62
     3
370
    35
100
AcDbVertex
100
AcDb2dVertex
 10
165.0000921896528
 20
88.12502574836806
 30
0.0
  0
VERTEX
  5
131
330
12F
100
AcDbEntity
  8
Layer1
 62
     3
370
    35
100
AcDbVertex
100
AcDb2dVertex
 10
128.000111187618
 20
88.12502574836806
 30
0.0
  0
SEQEND
  5
132
330
12F
100
AcDbEntity
  8
Layer1
370
    35
  0
SPLINE
  5
133
330
1F
100
AcDbEntity
  8
Layer1
 62
     7
370
    35
100
AcDbSpline
210
0.0
220
0.0
230
1.0
 70
     8
 71
     3
 72
    17
 73
    13
 74
     0
 42
0.0000000001
 43
0.0000000001
 40
0.0
 40
0.0
 40
0.0
 40
0.0
 40
1.0
 40
1.0
 40
1.0
 40
2.0
 40
2.0
 40
2.0
 40
3.0
 40
3.0
 40
3.0
 40
4.0
 40
4.0
 40
4.0
 40
4.0
 10
128.000111187618
 20
88.12502574836806
 30
0.0
 10
128.7854207034807
 20
88.12502574836806
 30
0.0
 10
129.5660793404383
 20
88.44852021443302
 30
0.0
 10
130.1214287326606
 20
89.00369735188103
 30
0.0
 10
130.6766058701086
 20
89.5590467441033
 30
0.0
 10
131.0001003361736
 20
90.33970538106091
 30
0.0
 10
131.0001003361736
 20
91.12501489692362
 30
0.0
 10
131.0001003361736
 20
91.91032441278631
 30
0.0
 10
130.6766058701086
 20
92.69098304974392
 30
0.0
 10
130.1214287326606
 20
93.24616018719193
 30
0.0
 10
129.5660793404383
 20
93.80185408896274
 30
0.0
 10
128.7854207034807
 20
94.12500404547917
 30
0.0
 10
128.000111187618
 20
94.12500404547917
 30
0.0
  0
POLYLINE
  5
134
330
1F
100
AcDbEntity
  8
Layer1
 62
     7
370
    35
100
AcDb2dPolyline
 66
     1
 10
0.0
 20
0.0
 30
0.0
  0
VERTEX
  5
135
330
134
100
AcDbEntity
  8
Layer1
 62
     7
370
    35
100
AcDbVertex
100
AcDb2dVertex
 10
128.000111187618
 20
94.12500404547917
 30
0.0
  0
VERTEX
  5
136
330
134
100
AcDbEntity
  8
Layer1
 62
     7
370
    35
100
AcDbVertex
100
AcDb2dVertex
 10
111.0001152608784
 20
94.12500404547917
 30
0.0
  0
SEQEND
  5
137
330
134
100
AcDbEntity
  8
Layer1
370
    35
  0
SPLINE
  5
138
330
1F
100
AcDbEntity
  8
Layer1
 62
     7
370
    35
100
AcDbSpline
210
0.0
220
0.0
230
1.0
 70
     8
 71
     3
 72
    17
 73
    13
 74
     0
 42
0.0000000001
 43
0.0000000001
 40
0.0
 40
0.0
 40
0.0
 40
0.0
 40
1.0
 40
1.0
 40
1.0
 40
2.0
 40
2.0
 40
2.0
 40
3.0
 40
3.0
 40
3.0
 40
4.0
 40
4.0
 40
4.0
 40
4.0
 10
111.0001152608784
 20
94.12500404547917
 30
0.0
 10
110.2144612354672
 20
94.12500404547917
 30
0.0
 10
109.4341471080581
 20
93.80185408896274
 30
0.0
 10
108.8784532062873
 20
93.24616018719193
 30
0.0
 10
108.3232760688393
 20
92.69098304974392
 30
0.0
 10
108.0001261123229
 20
91.91032441278631
 30
0.0
 10
108.0001261123229
 20
91.12501489692362
 30
0.0
 10
108.0001261123229
 20
90.33970538106091
 30
0.0
 10
108.3232760688393
 20
89.5590467441033
 30
0.0
 10
108.8784532062873
 20
89.00369735188103
 30
0.0
 10
109.4341471080581
 20
88.44852021443302
 30
0.0
 10
110.2144612354672
 20
88.12502574836806
 30
0.0
 10
111.0001152608784
 20
88.12502574836806
 30
0.0
  0
POLYLINE
  5
139
330
1F
100
AcDbEntity
  8
Layer1
 62
     3
370
    35
100
AcDb2dPolyline
 66
     1
 10
0.0
 20
0.0
 30
0.0
  0
VERTEX
  5
13A
330
139
100
AcDbEntity
  8
Layer1
 62
     3
370
    35
100
AcDbVertex
100
AcDb2dVertex
 10
111.0001152608784
 20
88.12502574836806
 30
0.0
  0
VERTEX
  5
13B
330
139
100
AcDbEntity
  8
Layer1
 62
     3
370
    35
100
AcDbVertex
100
AcDb2dVertex
 10
74.00013425884372
 20
88.12502574836806
 30
0.0
  0
SEQEND
  5
13C
330
139
100
AcDbEntity
  8
Layer1
370
    35
  0
POLYLINE
  5
13D
330
1F
100
AcDbEntity
  8
Layer1
 62
     3
370
    35
100
AcDb2dPolyline
 66
     1
 10
0.0
 20
0.0
 30
0.0
  0
VERTEX
  5
13E
330
13D
100
AcDbEntity
  8
Layer1
 62
     3
370
    35
100
AcDbVertex
100
AcDb2dVertex
 10
241.9998710875035
 20
188.125123379618
 30
0.0
  0
VERTEX
  5
13F
330
13D
100
AcDbEntity
  8
Layer1
 62
     3
370
    35
100
AcDbVertex
100
AcDb2dVertex
 10
331.9998900537188
 20
188.125123379618
 30
0.0
  0
SEQEND
  5
140
330
13D
100
AcDbEntity
  8
Layer1
370
    35
  0
POLYLINE
  5
141
330
1F
100
AcDbEntity
  8
Layer1
 62
     3
370
    35
100
AcDb2dPolyline
 66
     1
 10
0.0
 20
0.0
 30
0.0
  0
VERTEX
  5
142
330
141
100
AcDbEntity
  8
Layer1
 62
     3
370
    35
100
AcDbVertex
100
AcDb2dVertex
 10
331.9998900537188
 20
188.125123379618
 30
0.0
  0
VERTEX
  5
143
330
141
100
AcDbEntity
  8
Layer1
 62
     3
370
    35
100
AcDbVertex
100
AcDb2dVertex
 10
331.9998900537188
 20
94.12500404547917
 30
0.0
  0
SEQEND
  5
144
330
141
100
AcDbEntity
  8
Layer1
370
    35
  0
POLYLINE
  5
145
330
1F
100
AcDbEntity
  8
Layer1
 62
     3
370
    35
100
AcDb2dPolyline
 66
     1
 10
0.0
 20
0.0
 30
0.0
  0
VERTEX
  5
146
330
145
100
AcDbEntity
  8
Layer1
 62
     3
370
    35
100
AcDbVertex
100
AcDb2dVertex
 10
331.9998900537188
 20
94.12500404547917
 30
0.0
  0
VERTEX
  5
147
330
145
100
AcDbEntity
  8
Layer1
 62
     3
370
    35
100
AcDbVertex
100
AcDb2dVertex
 10
241.9998710875035
 20
94.12500404547917
 30
0.0
  0
SEQEND
  5
148
330
145
100
AcDbEntity
  8
Layer1
370
    35
  0
POLYLINE
  5
149
330
1F
100
AcDbEntity
  8
Layer1
 62
     7
370
    35
100
AcDb2dPolyline
 66
     1
 10
0.0
 20
0.0
 30
0.0
  0
VERTEX
  5
14A
330
149
100
AcDbEntity
  8
Layer1
 62
     7
370
    35
100
AcDbVertex
100
AcDb2dVertex
 10
130.1961873046905
 20
353.1234930215282
 30
0.0
  0
VERTEX
  5
14B
330
149
100
AcDbEntity
  8
Layer1
 62
     7
370
    35
100
AcDbVertex
100
AcDb2dVertex
 10
108.8036946342574
 20
353.1234930215282
 30
0.0
  0
SEQEND
  5
14C
330
149
100
AcDbEntity
  8
Layer1
370
    35
  0
POLYLINE
  5
14D
330
1F
100
AcDbEntity
  8
Layer1
 62
     7
370
    35
100
AcDb2dPolyline
 66
     1
 10
0.0
 20
0.0
 30
0.0
  0
VERTEX
  5
14E
330
14D
100
AcDbEntity
  8
Layer1
 62
     7
370
    35
100
AcDbVertex
100
AcDb2dVertex
 10
108.8036946342574
 20
353.1234930215282
 30
0.0
  0
VERTEX
  5
14F
330
14D
100
AcDbEntity
  8
Layer1
 62
     7
370
    35
100
AcDbVertex
100
AcDb2dVertex
 10
108.0001261123229
 20
350.1248819111667
 30
0.0
  0
SEQEND
  5
150
330
14D
100
AcDbEntity
  8
Layer1
370
    35
  0
POLYLINE
  5
151
330
1F
100
AcDbEntity
  8
Layer1
 62
     7
370
    35
100
AcDb2dPolyline
 66
     1
 10
0.0
 20
0.0
 30
0.0
  0
VERTEX
  5
152
330
151
100
AcDbEntity
  8
Layer1
 62
     7
370
    35
100
AcDbVertex
100
AcDb2dVertex
 10
108.0001261123229
 20
350.1248819111667
 30
0.0
  0
VERTEX
  5
153
330
151
100
AcDbEntity
  8
Layer1
 62
     7
370
    35
100
AcDbVertex
100
AcDb2dVertex
 10
76.00001218803125
 20
350.1248819111667
 30
0.0
  0
SEQEND
  5
154
330
151
100
AcDbEntity
  8
Layer1
370
    35
  0
POLYLINE
  5
155
330
1F
100
AcDbEntity
  8
Layer1
 62
     7
370
    35
100
AcDb2dPolyline
 66
     1
 10
0.0
 20
0.0
 30
0.0
  0
VERTEX
  5
156
330
155
100
AcDbEntity
  8
Layer1
 62
     7
370
    35
100
AcDbVertex
100
AcDb2dVertex
 10
76.00001218803125
 20
350.1248819111667
 30
0.0
  0
VERTEX
  5
157
330
155
100
AcDbEntity
  8
Layer1
 62
     7
370
    35
100
AcDbVertex
100
AcDb2dVertex
 10
76.00001218803125
 20
275.1250670698906
 30
0.0
  0
SEQEND
  5
158
330
155
100
AcDbEntity
  8
Layer1
370
    35
  0
POLYLINE
  5
159
330
1F
100
AcDbEntity
  8
Layer1
 62
     3
370
    35
100
AcDb2dPolyline
 66
     1
 10
0.0
 20
0.0
 30
0.0
  0
VERTEX
  5
15A
330
159
100
AcDbEntity
  8
Layer1
 62
     3
370
    35
100
AcDbVertex
100
AcDb2dVertex
 10
76.00001218803125
 20
275.1250670698906
 30
0.0
  0
VERTEX
  5
15B
330
159
100
AcDbEntity
  8
Layer1
 62
     3
370
    35
100
AcDbVertex
100
AcDb2dVertex
 10
162.9998697509167
 20
275.1250670698906
 30
0.0
  0
SEQEND
  5
15C
330
159
100
AcDbEntity
  8
Layer1
370
    35
  0
POLYLINE
  5
15D
330
1F
100
AcDbEntity
  8
Layer1
 62
     7
370
    35
100
AcDb2dPolyline
 66
     1
 10
0.0
 20
0.0
 30
0.0
  0
VERTEX
  5
15E
330
15D
100
AcDbEntity
  8
Layer1
 62
     7
370
    35
100
AcDbVertex
100
AcDb2dVertex
 10
162.9998697509167
 20
275.1250670698906
 30
0.0
  0
VERTEX
  5
15F
330
15D
100
AcDbEntity
  8
Layer1
 62
     7
370
    35
100
AcDbVertex
100
AcDb2dVertex
 10
165.0000921896528
 20
270.1251138647604
 30
0.0
  0
SEQEND
  5
160
330
15D
100
AcDbEntity
  8
Layer1
370
    35
  0
POLYLINE
  5
162
330
1F
100
AcDbEntity
  8
Layer1
 62
     3
370
    35
100
AcDb2dPolyline
 66
     1
 10
0.0
 20
0.0
 30
0.0
  0
VERTEX
  5
163
330
162
100
AcDbEntity
  8
Layer1
 62
     3
370
    35
100
AcDbVertex
100
AcDb2dVertex
 10
165.0000921896528
 20
270.1251138647604
 30
0.0
  0
VERTEX
  5
164
330
162
100
AcDbEntity
  8
Layer1
 62
     3
370
    35
100
AcDbVertex
100
AcDb2dVertex
 10
74.00013425884372
 20
270.1251138647604
 30
0.0
  0
SEQEND
  5
165
330
162
100
AcDbEntity
  8
Layer1
370
    35
  0
POLYLINE
  5
167
330
1F
100
AcDbEntity
  8
Layer1
 62
     7
370
    35
100
AcDb2dPolyline
 66
     1
 10
0.0
 20
0.0
 30
0.0
  0
VERTEX
  5
168
330
167
100
AcDbEntity
  8
Layer1
 62
     7
370
    35
100
AcDbVertex
100
AcDb2dVertex
 10
74.00013425884372
 20
270.1251138647604
 30
0.0
  0
VERTEX
  5
169
330
167
100
AcDbEntity
  8
Layer1
 62
     7
370
    35
100
AcDbVertex
100
AcDb2dVertex
 10
76.00001218803125
 20
275.1250670698906
 30
0.0
  0
SEQEND
  5
16A
330
167
100
AcDbEntity
  8
Layer1
370
    35
  0
POLYLINE
  5
16B
330
1F
100
AcDbEntity
  8
Layer1
 62
     7
370
    35
100
AcDb2dPolyline
 66
     1
 10
0.0
 20
0.0
 30
0.0
  0
VERTEX
  5
16C
330
16B
100
AcDbEntity
  8
Layer1
 62
     7
370
    35
100
AcDbVertex
100
AcDb2dVertex
 10
130.1961873046905
 20
353.1234930215282
 30
0.0
  0
VERTEX
  5
16D
330
16B
100
AcDbEntity
  8
Layer1
 62
     7
370
    35
100
AcDbVertex
100
AcDb2dVertex
 10
131.0001003361736
 20
350.1248819111667
 30
0.0
  0
SEQEND
  5
16E
330
16B
100
AcDbEntity
  8
Layer1
370
    35
  0
POLYLINE
  5
16F
330
1F
100
AcDbEntity
  8
Layer1
 62
     7
370
    35
100
AcDb2dPolyline
 66
     1
 10
0.0
 20
0.0
 30
0.0
  0
VERTEX
  5
170
330
16F
100
AcDbEntity
  8
Layer1
 62
     7
370
    35
100
AcDbVertex
100
AcDb2dVertex
 10
131.0001003361736
 20
350.1248819111667
 30
0.0
  0
VERTEX
  5
171
330
16F
100
AcDbEntity
  8
Layer1
 62
     7
370
    35
100
AcDbVertex
100
AcDb2dVertex
 10
162.9998697509167
 20
350.1248819111667
 30
0.0
  0
SEQEND
  5
172
330
16F
100
AcDbEntity
  8
Layer1
370
    35
  0
POLYLINE
  5
173
330
1F
100
AcDbEntity
  8
Layer1
 62
     7
370
    35
100
AcDb2dPolyline
 66
     1
 10
0.0
 20
0.0
 30
0.0
  0
VERTEX
  5
174
330
173
100
AcDbEntity
  8
Layer1
 62
     7
370
    35
100
AcDbVertex
100
AcDb2dVertex
 10
162.9998697509167
 20
350.1248819111667
 30
0.0
  0
VERTEX
  5
175
330
173
100
AcDbEntity
  8
Layer1
 62
     7
370
    35
100
AcDbVertex
100
AcDb2dVertex
 10
162.9998697509167
 20
275.1250670698906
 30
0.0
  0
SEQEND
  5
176
330
173
100
AcDbEntity
  8
Layer1
370
    35
  0
ENDSEC
  0
SECTION
  2
OBJECTS
  0
DICTIONARY
  5
C
330
0
100
AcDbDictionary
281
     1
  3
ACAD_GROUP
350
D
  3
ACAD_LAYOUT
350
1A
  3
ACAD_MLINESTYLE
350
17
  3
ACAD_PLOTSETTINGS
350
19
  3
ACAD_PLOTSTYLENAME
350
E
  3
ACAD_TABLESTYLE
350
177
  3
ACAD_VISUALSTYLE
350
2A
  0
DICTIONARY
  5
D
102
{ACAD_REACTORS
330
C
102
}
330
C
100
AcDbDictionary
281
     1
  0
DICTIONARY
  5
1A
102
{ACAD_REACTORS
330
C
102
}
330
C
100
AcDbDictionary
281
     1
  3
Layout1
350
1E
  3
Layout2
350
26
  3
Model
350
22
  0
DICTIONARY
  5
17
102
{ACAD_REACTORS
330
C
102
}
330
C
100
AcDbDictionary
281
     1
  3
Standard
350
18
  0
DICTIONARY
  5
19
102
{ACAD_REACTORS
330
C
102
}
330
C
100
AcDbDictionary
281
     1
  0
ACDBDICTIONARYWDFLT
  5
E
102
{ACAD_REACTORS
330
C
102
}
330
C
100
AcDbDictionary
281
     1
  3
Normal
350
F
100
AcDbDictionaryWithDefault
340
F
  0
DICTIONARY
  5
177
102
{ACAD_REACTORS
330
C
102
}
330
C
100
AcDbDictionary
281
     1
  0
DICTIONARY
  5
2A
102
{ACAD_REACTORS
330
C
102
}
330
C
100
AcDbDictionary
281
     1
  3
2dWireframe
350
2F
  3
3D Hidden
350
31
  3
3dWireframe
350
30
  3
Basic
350
32
  3
Brighten
350
36
  3
ColorChange
350
3A
  3
Conceptual
350
34
  3
Dim
350
35
  3
Facepattern
350
39
  3
Flat
350
2B
  3
FlatWithEdges
350
2C
  3
Gouraud
350
2D
  3
GouraudWithEdges
350
2E
  3
Linepattern
350
38
  3
Realistic
350
33
  3
Thicken
350
37
  0
LAYOUT
  5
1E
102
{ACAD_REACTORS
330
1A
102
}
330
1A
100
AcDbPlotSettings
  1

  2
none_device
  4

  6

 40
0.0
 41
0.0
 42
0.0
 43
0.0
 44
0.0
 45
0.0
 46
0.0
 47
0.0
 48
0.0
 49
0.0
140
0.0
141
0.0
142
1.0
143
1.0
 70
   688
 72
     0
 73
     0
 74
     5
  7

 75
    16
 76
     0
 77
     2
 78
   300
147
1.0
148
0.0
149
0.0
100
AcDbLayout
  1
Layout1
 70
     1
 71
     1
 10
0.0
 20
0.0
 11
12.0
 21
9.0
 12
0.0
 22
0.0
 32
0.0
 14
1.000000000000000E+20
 24
1.000000000000000E+20
 34
1.000000000000000E+20
 15
-1.000000000000000E+20
 25
-1.000000000000000E+20
 35
-1.000000000000000E+20
146
0.0
 13
0.0
 23
0.0
 33
0.0
 16
1.0
 26
0.0
 36
0.0
 17
0.0
 27
1.0
 37
0.0
 76
     0
330
1B
  0
LAYOUT
  5
26
102
{ACAD_REACTORS
330
1A
102
}
330
1A
100
AcDbPlotSettings
  1

  2
none_device
  4

  6

 40
0.0
 41
0.0
 42
0.0
 43
0.0
 44
0.0
 45
0.0
 46
0.0
 47
0.0
 48
0.0
 49
0.0
140
0.0
141
0.0
142
1.0
143
1.0
 70
   688
 72
     0
 73
     0
 74
     5
  7

 75
    16
 76
     0
 77
     2
 78
   300
147
1.0
148
0.0
149
0.0
100
AcDbLayout
  1
Layout2
 70
     1
 71
     2
 10
0.0
 20
0.0
 11
0.0
 21
0.0
 12
0.0
 22
0.0
 32
0.0
 14
0.0
 24
0.0
 34
0.0
 15
0.0
 25
0.0
 35
0.0
146
0.0
 13
0.0
 23
0.0
 33
0.0
 16
1.0
 26
0.0
 36
0.0
 17
0.0
 27
1.0
 37
0.0
 76
     0
330
23
  0
LAYOUT
  5
22
102
{ACAD_REACTORS
330
1A
102
}
330
1A
100
AcDbPlotSettings
  1

  2
none_device
  4

  6

 40
0.0
 41
0.0
 42
0.0
 43
0.0
 44
0.0
 45
0.0
 46
0.0
 47
0.0
 48
0.0
 49
0.0
140
0.0
141
0.0
142
1.0
143
1.0
 70
  1712
 72
     0
 73
     0
 74
     0
  7

 75
     0
 76
     0
 77
     2
 78
   300
147
1.0
148
0.0
149
0.0
100
AcDbLayout
  1
Model
 70
     1
 71
     0
 10
0.0
 20
0.0
 11
12.0
 21
9.0
 12
0.0
 22
0.0
 32
0.0
 14
1.000000000000000E+20
 24
1.000000000000000E+20
 34
1.000000000000000E+20
 15
-1.000000000000000E+20
 25
-1.000000000000000E+20
 35
-1.000000000000000E+20
146
0.0
 13
0.0
 23
0.0
 33
0.0
 16
1.0
 26
0.0
 36
0.0
 17
0.0
 27
1.0
 37
0.0
 76
     0
330
1F
331
29
  0
MLINESTYLE
  5
18
102
{ACAD_REACTORS
330
17
102
}
330
17
100
AcDbMlineStyle
  2
Standard
 70
     0
  3

 62
   256
 51
90.0
 52
90.0
 71
     2
 49
0.5
 62
   256
  6
BYLAYER
 49
-0.5
 62
   256
  6
BYLAYER
  0
ACDBPLACEHOLDER
  5
F
102
{ACAD_REACTORS
330
E
102
}
330
E
  0
VISUALSTYLE
  5
2F
102
{ACAD_REACTORS
330
2A
102
}
330
2A
100
AcDbVisualStyle
  2
2dWireframe
 70
     4
 71
     0
 72
     2
 73
     0
 90
        0
 40
-0.6
 41
-30.0
 62
     5
 63
     7
421
 16777215
 74
     1
 91
        4
 64
     7
 65
   257
 75
     1
175
     1
 42
1.0
 92
        0
 66
   257
 43
1.0
 76
     1
 77
     6
 78
     2
 67
     7
 79
     5
170
     0
171
     0
290
     0
174
     0
 93
        1
 44
0.0
173
     0
291
     0
 45
0.0
1001
ACAD
1000
AcDbSavedByObjectVersion
1070
     0
  0
VISUALSTYLE
  5
31
102
{ACAD_REACTORS
330
2A
102
}
330
2A
100
AcDbVisualStyle
  2
3D Hidden
 70
     6
 71
     1
 72
     2
 73
     2
 90
        0
 40
-0.6
 41
-30.0
 62
     5
 63
     7
421
 16777215
 74
     2
 91
        2
 64
     7
 65
   257
 75
     2
175
     1
 42
40.0
 92
        0
 66
   257
 43
1.0
 76
     1
 77
     6
 78
     2
 67
     7
 79
     3
170
     0
171
     0
290
     0
174
     0
 93
        1
 44
0.0
173
     0
291
     0
 45
0.0
1001
ACAD
1000
AcDbSavedByObjectVersion
1070
     0
  0
VISUALSTYLE
  5
30
102
{ACAD_REACTORS
330
2A
102
}
330
2A
100
AcDbVisualStyle
  2
3dWireframe
 70
     5
 71
     0
 72
     2
 73
     0
 90
        0
 40
-0.6
 41
-30.0
 62
     5
 63
     7
421
 16777215
 74
     1
 91
        4
 64
     7
 65
   257
 75
     1
175
     1
 42
1.0
 92
        0
 66
   257
 43
1.0
 76
     1
 77
     6
 78
     2
 67
     7
 79
     5
170
     0
171
     0
290
     0
174
     0
 93
        1
 44
0.0
173
     0
291
     0
 45
0.0
1001
ACAD
1000
AcDbSavedByObjectVersion
1070
     0
  0
VISUALSTYLE
  5
32
102
{ACAD_REACTORS
330
2A
102
}
330
2A
100
AcDbVisualStyle
  2
Basic
 70
     7
 71
     1
 72
     0
 73
     1
 90
        0
 40
-0.6
 41
-30.0
 62
     5
 63
     7
421
 16777215
 74
     0
 91
        4
 64
     7
 65
   257
 75
     1
175
     1
 42
1.0
 92
        8
 66
     7
 43
1.0
 76
     1
 77
     6
 78
     2
 67
     7
 79
     5
170
     0
171
     0
290
     0
174
     0
 93
        1
 44
0.0
173
     0
291
     1
 45
0.0
1001
ACAD
1000
AcDbSavedByObjectVersion
1070
     0
  0
VISUALSTYLE
  5
36
102
{ACAD_REACTORS
330
2A
102
}
330
2A
100
AcDbVisualStyle
  2
Brighten
 70
    12
 71
     2
 72
     2
 73
     0
 90
        0
 40
-0.6
 41
-30.0
 62
     5
 63
     7
421
 16777215
 74
     1
 91
        4
 64
     7
 65
   257
 75
     1
175
     1
 42
1.0
 92
        8
 66
     7
 43
1.0
 76
     1
 77
     6
 78
     2
 67
     7
 79
     5
170
     0
171
     0
290
     0
174
     0
 93
        1
 44
50.0
173
     0
291
     1
 45
0.0
1001
ACAD
1000
AcDbSavedByObjectVersion
1070
     0
  0
VISUALSTYLE
  5
3A
102
{ACAD_REACTORS
330
2A
102
}
330
2A
100
AcDbVisualStyle
  2
ColorChange
 70
    16
 71
     2
 72
     2
 73
     3
 90
        0
 40
-0.6
 41
-30.0
 62
     5
 63
     8
421
  8421504
 74
     1
 91
        4
 64
     7
 65
   257
 75
     1
175
     1
 42
1.0
 92
        8
 66
     8
424
  8421504
 43
1.0
 76
     1
 77
     6
 78
     2
 67
     7
 79
     5
170
     0
171
     0
290
     0
174
     0
 93
        1
 44
0.0
173
     0
291
     1
 45
0.0
1001
ACAD
1000
AcDbSavedByObjectVersion
1070
     0
  0
VISUALSTYLE
  5
34
102
{ACAD_REACTORS
330
2A
102
}
330
2A
100
AcDbVisualStyle
  2
Conceptual
 70
     9
 71
     3
 72
     2
 73
     0
 90
        0
 40
-0.6
 41
-30.0
 62
     5
 63
     7
421
 16777215
 74
     2
 91
        2
 64
     7
 65
   257
 75
     1
175
     1
 42
40.0
 92
        8
 66
     7
 43
1.0
 76
     1
 77
     6
 78
     2
 67
     7
 79
     3
170
     0
171
     0
290
     0
174
     0
 93
        1
 44
0.0
173
     0
291
     0
 45
0.0
1001
ACAD
1000
AcDbSavedByObjectVersion
1070
     0
  0
VISUALSTYLE
  5
35
102
{ACAD_REACTORS
330
2A
102
}
330
2A
100
AcDbVisualStyle
  2
Dim
 70
    11
 71
     2
 72
     2
 73
     0
 90
        0
 40
-0.6
 41
-30.0
 62
     5
 63
     7
421
 16777215
 74
     1
 91
        4
 64
     7
 65
   257
 75
     1
175
     1
 42
1.0
 92
        8
 66
     7
 43
1.0
 76
     1
 77
     6
 78
     2
 67
     7
 79
     5
170
     0
171
     0
290
     0
174
     0
 93
        1
 44
-50.0
173
     0
291
     1
 45
0.0
1001
ACAD
1000
AcDbSavedByObjectVersion
1070
     0
  0
VISUALSTYLE
  5
39
102
{ACAD_REACTORS
330
2A
102
}
330
2A
100
AcDbVisualStyle
  2
Facepattern
 70
    15
 71
     2
 72
     2
 73
     0
 90
        0
 40
-0.6
 41
-30.0
 62
     5
 63
     7
421
 16777215
 74
     1
 91
        4
 64
     7
 65
   257
 75
     1
175
     1
 42
1.0
 92
        8
 66
     7
 43
1.0
 76
     1
 77
     6
 78
     2
 67
     7
 79
     5
170
     0
171
     0
290
     0
174
     0
 93
        1
 44
0.0
173
     0
291
     1
 45
0.0
1001
ACAD
1000
AcDbSavedByObjectVersion
1070
     0
  0
VISUALSTYLE
  5
2B
102
{ACAD_REACTORS
330
2A
102
}
330
2A
100
AcDbVisualStyle
  2
Flat
 70
     0
 71
     2
 72
     1
 73
     1
 90
        2
 40
-0.6
 41
30.0
 62
     5
 63
     7
421
 16777215
 74
     0
 91
        4
 64
     7
 65
   257
 75
     1
175
     1
 42
1.0
 92
        8
 66
     7
 43
1.0
 76
     1
 77
     6
 78
     2
 67
     7
 79
     5
170
     0
171
     0
290
     0
174
     0
 93
       13
 44
0.0
173
     0
291
     1
 45
0.0
1001
ACAD
1000
AcDbSavedByObjectVersion
1070
     0
  0
VISUALSTYLE
  5
2C
102
{ACAD_REACTORS
330
2A
102
}
330
2A
100
AcDbVisualStyle
  2
FlatWithEdges
 70
     1
 71
     2
 72
     1
 73
     1
 90
        2
 40
-0.6
 41
30.0
 62
     5
 63
     7
421
 16777215
 74
     1
 91
        4
 64
     7
 65
   257
 75
     1
175
     1
 42
1.0
 92
        0
 66
   257
 43
1.0
 76
     1
 77
     6
 78
     2
 67
     7
 79
     5
170
     0
171
     0
290
     0
174
     0
 93
       13
 44
0.0
173
     0
291
     1
 45
0.0
1001
ACAD
1000
AcDbSavedByObjectVersion
1070
     0
  0
VISUALSTYLE
  5
2D
102
{ACAD_REACTORS
330
2A
102
}
330
2A
100
AcDbVisualStyle
  2
Gouraud
 70
     2
 71
     2
 72
     2
 73
     1
 90
        2
 40
-0.6
 41
30.0
 62
     5
 63
     7
421
 16777215
 74
     0
 91
        4
 64
     7
 65
   257
 75
     1
175
     1
 42
1.0
 92
        0
 66
     7
 43
1.0
 76
     1
 77
     6
 78
     2
 67
     7
 79
     5
170
     0
171
     0
290
     0
174
     0
 93
       13
 44
0.0
173
     0
291
     1
 45
0.0
1001
ACAD
1000
AcDbSavedByObjectVersion
1070
     0
  0
VISUALSTYLE
  5
2E
102
{ACAD_REACTORS
330
2A
102
}
330
2A
100
AcDbVisualStyle
  2
GouraudWithEdges
 70
     3
 71
     2
 72
     2
 73
     1
 90
        2
 40
-0.6
 41
30.0
 62
     5
 63
     7
421
 16777215
 74
     1
 91
        4
 64
     7
 65
   257
 75
     1
175
     1
 42
1.0
 92
        0
 66
   257
 43
1.0
 76
     1
 77
     6
 78
     2
 67
     7
 79
     5
170
     0
171
     0
290
     0
174
     0
 93
       13
 44
0.0
173
     0
291
     1
 45
0.0
1001
ACAD
1000
AcDbSavedByObjectVersion
1070
     0
  0
VISUALSTYLE
  5
38
102
{ACAD_REACTORS
330
2A
102
}
330
2A
100
AcDbVisualStyle
  2
Linepattern
 70
    14
 71
     2
 72
     2
 73
     0
 90
        0
 40
-0.6
 41
-30.0
 62
     5
 63
     7
421
 16777215
 74
     1
 91
        4
 64
     7
 65
   257
 75
     7
175
     7
 42
1.0
 92
        8
 66
     7
 43
1.0
 76
     1
 77
     6
 78
     2
 67
     7
 79
     5
170
     0
171
     0
290
     0
174
     0
 93
        1
 44
0.0
173
     0
291
     1
 45
0.0
1001
ACAD
1000
AcDbSavedByObjectVersion
1070
     0
  0
VISUALSTYLE
  5
33
102
{ACAD_REACTORS
330
2A
102
}
330
2A
100
AcDbVisualStyle
  2
Realistic
 70
     8
 71
     2
 72
     2
 73
     0
 90
        0
 40
-0.6
 41
-30.0
 62
     5
 63
     7
421
 16777215
 74
     1
 91
        0
 64
     7
 65
   257
 75
     1
175
     1
 42
1.0
 92
        8
 66
     8
424
  7895160
 43
1.0
 76
     1
 77
     6
 78
     2
 67
     7
 79
     5
170
     0
171
     0
290
     0
174
     0
 93
       13
 44
0.0
173
     0
291
     0
 45
0.0
1001
ACAD
1000
AcDbSavedByObjectVersion
1070
     0
  0
VISUALSTYLE
  5
37
102
{ACAD_REACTORS
330
2A
102
}
330
2A
100
AcDbVisualStyle
  2
Thicken
 70
    13
 71
     2
 72
     2
 73
     0
 90
        0
 40
-0.6
 41
-30.0
 62
     5
 63
     7
421
 16777215
 74
     1
 91
        4
 64
     7
 65
   257
 75
     1
175
     1
 42
1.0
 92
       12
 66
     7
 43
1.0
 76
     1
 77
     6
 78
     2
 67
     7
 79
     5
170
     0
171
     0
290
     0
174
     0
 93
        1
 44
0.0
173
     0
291
     1
 45
0.0
1001
ACAD
1000
AcDbSavedByObjectVersion
1070
     0
  0
ENDSEC
  0
EOF
